Song name
# A B C D E F G H I J K L M N O P Q R S T U V W X Y Z

Ben Kweller - My Apartment tab

Highlighted       Show chord diagrams
#----------------------------------PLEASE NOTE---------------------------------#
#This file is the author's own work and represents their interpretation of the #
#song. You may only use this file for private study, scholarship, or research. #
#------------------------------------------------------------------------------#

TABBED BY:  Chris Schmoutz  colormeenthused@yahoo.com		

Artist: Ben Kweller
Album: On My Way
Song: My Apartment

e-7-7--5-5--3-3--3-2-
B--------------------
G-7-7--5-5--4-4--3-2-  x2
D--------------------
A--------------------
E--------------------

G
Sometimes, i wish i had a farm
                        C
where the only pollution is your cigarettes
where your mind is clear
              G
but i like it here
in my small space
               C
new york's the place
where the sidewalks know my face
as i walk to 
   G
my apartment
    C            G
the home where i hide
C                 Am  Bm   C  D
away from all the darkness outside
   G
my apartment
    C            G
the home where i hide
C                 Am  Bm   C  D
away from all the darkness outside

C  D x3

i'm there all the time

e-7-7--5-5--3-3--3-2-
B--------------------
G-7-7--5-5--4-4--3-2-
D--------------------
A--------------------
E--------------------

bikes ride to the park
and city pools
it's summer now
empty the schools
fly home to my cat
on the f train
i'm protected from pain
when i'm in
   G
my apartment
    C            G
the home where i hide
C                 Am  Bm   C  D
away from all the darkness outside
   G
my apartment
    C            G
the home where i hide
C                 Am  Bm   C  D
away from all the darkness outside



C  D x7

i'm there all the time

(bass bridge)

e-7-7--5-5--3-3--3-2-
B--------------------
G-7-7--5-5--4-4--3-2-  x2
D--------------------
A--------------------
E--------------------

e-3-3-3-3-3-3-3-3-3-3-
B-3-3-3-3-3-3-3-3-3-3-
G-0-0-0-0-0-0-0-0-0-0-  x2
D-0-0-0-0-0-0-0-0-0-0-
A-2-2-2-2-2-2-2-2-2-2-
e-3-3-2-2-0-0-2-2-3-3-

e-0-0-0-0-0-0-0-0-0-0-
B-1-1-1-1-1-1-1-1-1-1-
G-0-0-0-0-0-0-0-0-0-0-  x2
D-2-2-2-2-2-2-2-2-2-2-
A-3-3-2-2-0-0-2-2-3-3-
e-x-x-x-x-x-x-x-x-x-x-

e-3-3-3-3-3-3-3-3-3-3-
B-3-3-3-3-3-3-3-3-3-3-
G-0-0-0-0-0-0-0-0-0-0-  x2
D-0-0-0-0-0-0-0-0-0-0-
A-2-2-2-2-2-2-2-2-2-2-
e-3-3-2-2-0-0-2-2-3-3-

e-0-0-0-0-0-0-0-0-0-0-
B-1-1-1-1-1-1-1-1-1-1-
G-0-0-0-0-0-0-0-0-0-0-  x2
D-2-2-2-2-2-2-2-2-2-2-
A-3-3-2-2-0-0-2-2-3-3-
e-x-x-x-x-x-x-x-x-x-x-

   G
my apartment
    C            G
the home where i hide
C                 Am  Bm   C  D
away from all the darkness outside
   G
my apartment
    C            G
the home where i hide
C                 Am  Bm   C  D
away from all the darkness outside

C  D x7
                   G
i'm there all the time
Tap to rate this tab
# A B C D E F G H I J K L M N O P Q R S T U V W X Y Z