Song name
# A B C D E F G H I J K L M N O P Q R S T U V W X Y Z

Ben Lee - Get Gotten tab

Ben Lee - Get Gotten

typical Ben Lee song- standard tuning, no capos and fun to play!

Verse:
"OK baby, what'll it be?..."
E-------------------------------------|
B-------3-----3----------3-----3------|
G-----0-----0---0------0-----0---0----|
D-------------------------------------|
A-------------------------------------|
E--00-----3--------00-----3-------3---|

"you're exactly the kind of trouble that I need"
E-----------------|
B-----3-----3-----|
G---2-----2---2---|
D-----------------|
A-0-----0-------0-|
E-----------------|


chorus:
"I wanna get you, so get gotten"
E------------------ ------------------|
B-----3-----3------ -----3-----3------|
G---0-----0------0- ---2-----2------2-|
D------------------ ------------------|
A-3-----3------3--- -0-----0------0---|
E------------------ ------------------|

"I won't stop till I get to the bottom"
E------------------ ------------------|
B-----3-----3------ -----3-----3------|
G---0-----0------0- ---0-----0------0-|
D------------------ ------------------|
A------------------ ------------------|
E-0-----0------0--- -3-----3------3---|

Lyrics:
Ok baby
What'll it be?
I asked my friends and they all agreed
You're exactly the kinda trouble that I need

I've got songs that give
I've got songs that prove
Songs I use
When I want to seduce
And I want to seduce you
Why won't you let me?

I wanna get you
So get gotten
I won't stop
Till I get to the bottom
I wanna get you
So get gotten

I've got big big dreams
In a small small world
And I'm using God
To pick up girls
And I'm willing
To put it all on the line

I've got words that destroy
Words that build
I use words
And I feel no guilt about it
I've got words that got bump in the night

It's no secret
That I've fallen
I won't stop till I get to the bottom
It's no secret that I've fallen

Cause first you're ripe
Then you're rotten
Dont stop till you get to bottom
First you're ripe
And then rotten

Once I knew
But I've forgotten
I'll find out when I get to the bottom
Once I knew
But I've forgotten

I wanna get you
So get gotten
I wont stop till I get to the bottom
I wanna get you
So get gotten


matthew@hale.com.au
Tap to rate this tab
 
# A B C D E F G H I J K L M N O P Q R S T U V W X Y Z