Song name
# A B C D E F G H I J K L M N O P Q R S T U V W X Y Z

Ben Lee - Catch My Disease Acoustic tab

Ben Lee - Catch My Disease (Acoustic With Two Guitars)

Listening Example: http://www.youtube.com/watch?v=EstY-8NWSgE

Chords - E A D G B E
B      - X 2 4 4 4 2
C#m    - X 4 6 6 5 4
E      - 0 2 2 1 0 0
F#     - 2 4 4 3 2 2
Intro:
                     B               C#m               E                  
E|----2-4-7-9-7-4-2-|--7--7--7--7--|-7--2-4-7-9-7-4-2-|--7--7--7--7--|
B|------------------|--------------|------------------|--------------|
G|------------------|--------------|------------------|--------------|
D|------------------|--------------|------------------|--------------|
A|------------------|--------------|------------------|--------------|
E|------------------|--------------|------------------|--------------|

  F#                 B              C#m                E
E|-7--2-4-7-9-7-4-2-|--7--7--7--7--|-7--2-4-7-9-7-4-2-|--7--7--7--7--|
B|------------------|--------------|------------------|--------------|
G|------------------|--------------|------------------|--------------|
D|------------------|--------------|------------------|--------------|
A|------------------|--------------|------------------|--------------|
E|------------------|--------------|------------------|--------------|
  F#
E|---7--4-7-9-7-4-7-|
B|------------------|
G|------------------|
D|------------------|
A|------------------|
E|------------------|

    
Verse 1: 
B             C#m
 My head is a box full of nothing
E                     F#
 and that's the way I like it 
B              C#m
 My garden's a secret compartment
E                     F#
 and that's the way I like it
                      B
 and that's the way I like it
B              C#m                
 Your body's a dream that turns violent
E                     F#
 and that's the way I like it
                      B
 and that's the way I like it 
B              C#m
 The winter is long in the city
E                     F#
 and that's the way I like it 
 
Chorus: 
  |B C#m||E F#|       |B C#m||E F#|
So pleeeeeeeaaaase baby please 
          |B C#m||E F#|       |B C#m||E F#|
Open your heaaaaaaaaart Catch my disease 
 



Verse 2: 
B          C#m
 I was backstage in Pomona
E                     F#
 and that's the way I like it 
B          C#m
 She drank beer with coca-cola
E                     F#
 and that's the way I like it
                      B
 and that's the way I like it
B                      C#m 
 She told me about the winds from Santa Anna
E                     F#
 and that's the way I like it
                      B
 and that's the way I like it 
B                C#m
 She told me she loved me like fireworks
E                     F#
 and that's the way I like it 
 

Chorus: 
    |B C#m||E F#|         |B C#m||E F#|
So pleeeeeeeeeeease baby please 
           |B C#m||E F#|       |B C#m||E F#|
Open your eyyyyeesss Catch my disease 
     |B C#m||E F#|         |B C#m||E F#|
So pleeeeeeeeeeease baby please  
       |B C#m||E F#|       |B C#m||E F#|
Come ooooooooon Catch my disease 
Catch it

Solo:
  B                 C#m              E               F#
E|-7-7-7-7-7-7-7-7-|-7-7-7-7-7-4-2--|-5-5-5-5-4-2-0-|-2-|
B|-----------------|----------------|---------------|---|
G|-----------------|----------------|---------------|---|
D|-----------------|----------------|---------------|---|
A|-----------------|----------------|---------------|---|
E|-----------------|----------------|---------------|---|

  B             C#m           E                F#m
E|-7-----4-2-7-|-------4-2-7-|----4-7-4-7-4-7-|-9-7-4-7-9----7-|
B|---Q-E-------|--H--E-------|-Q--------------|------------E---|
G|---R-R-------|--R--R-------|-R--------------|------------R---|
D|-------------|-------------|----------------|----------------|
A|-------------|-------------|----------------|----------------|
E|-------------|-------------|----------------|----------------|







Verse: 3  
B               C#m
 They play Good Charlotte on the radio
E                     F#
 and that's the way I like it 
B                 C#m
 They play Sleepy Jackson on the radio
E                     F#
 and that's the way I like it
                      B
 and that's the way I like it
B         C#m
 I hear Beyonce on the radio
E                     F#
 and that's the way I like it
                      B
 cos that's the way I like it 
B              C#m
 and they play me on the radio
E                     F#
 and that's the way I like it 
 
 
Outro:  
   |B C#m||E F#|          |B C#m||E F#|
So pleeeeeeeeeeease baby please 
          |B C#m||E F#|           |B C#m||E F#|
Open your heaaaaaaaaart Catch my disease 
     |B C#m||E F#|       |B C#m||E F#|
So pleeeeeeeeeeease baby please 
      |B C#m||E F#|       |B C#m||E F#|
Come oooooooooon Catch my disease 
             B             C#m         E        F#
(catch my disease)na na na na na na na na na 
             B             C#m         E        F#
(catch my disease)na na na na na na na na na 
             B             C#m         E        F#
(catch my disease)na na na na na na na na na 
             B             C#m         E        F#
(catch my disease)na na na na na na na na na 
Tap to rate this tab
# A B C D E F G H I J K L M N O P Q R S T U V W X Y Z