Song name
# A B C D E F G H I J K L M N O P Q R S T U V W X Y Z

Ben Lee - Im Willing tab

-----------------------------------------------------------------------------
			     I'm Willing - Ben Lee
-----------------------------------------------------------------------------

tabbed by: Rhyn Carey
email: rhyncarey@hotmail.com

i'm pretty sure this is 100% correct
it's all finger picked

tuning: standard (EADGBe)

Verse:

e|-----------------------------------------------------|
B|-----------------------------------------------------|
G|--------0-0---0-0---0-0---0-0---0-0---0-0---0-0--0-0-|
D|--------5-5---5-5---5-5---5-5---5-5---5-5---5-5--5-5-|
A|-(2)--3-----3-----2-----2-----0-----0----------------|
E|------------------------------------------3-----3----|

note in brackets only play after chorus


Verse type 2:

e|--------------------------------------------------|
B|--------------------------------------------------|
G|-----0-0---0-0---0-0---0-0------------------------|
D|-----5-5---5-5---5-5---5-5------------------------|
A|---3-----3-----2-----2-----0--let-ring------------|
E|--------------------------------------------------|


Chorus:

e|-----------------------------------------------------|
B|-----------------------------------------------------|
G|---0-0---0-0---0-0---0-0---0-0---0-0---0-0---0-(0)---|
D|---5-5---5-5---5-5---5-5---5-5---5-5---5-5---5-(5)---|
A|-5-----5-----7-----7-----3-----3-----3-----3---------|
E|-----------------------------------------------------|

notes in brackets don't play in change over to verse

occasionally chuck in an open B


Order:
verse x6
chorus x4
verse x4
chorus x6
verse x3
verse type 2 x1
chorus x4
Tap to rate this tab
# A B C D E F G H I J K L M N O P Q R S T U V W X Y Z