Song name
# A B C D E F G H I J K L M N O P Q R S T U V W X Y Z

Ben Lee - Catch My Disease tab

 this is a reasonably easy way to play catch my disease by ben lee
 the strum pattern is: d du udu
 u=up
 d=down

 great tab for beginners







all verses the same

e|----------------------3-33-333------------|
B|------------2-22-222--2-22-222------------|
G|------------2-22-222------------2-22-222--|
D|--2-22-222----------------------2-22-222--|
A|--3-33-333----------------------2-22-222--|
E|--2-22-222------------3-33-333------------|

chorus

strum pattern: ddu

e|------------333-------|
B|-------222--222-------|
G|-------222-------222--|
D|--222------------222--|
A|--333------------222--|
E|--222-------333-------|

and thats all there is to it
Tap to rate this tab
 
# A B C D E F G H I J K L M N O P Q R S T U V W X Y Z