Song name
# A B C D E F G H I J K L M N O P Q R S T U V W X Y Z

Ben Lee - Debt Collectors tab

----------------------------------------------------------------------------
		     THE DEBT COLLECTORS - Ben Lee
----------------------------------------------------------------------------

Standard Tuning
Tabbed by TGUK27dewees

VERSE:
e|-----------------------------------------------|
B|---3-----3---3-----3---3-----3---3-----3-------|
G|--2-2---2-2-2-2---2-2-2-2---2-2-2-2---2-2------|
D|-0---0h2---0---0h2---0---0h2---0---0h2---------|
A|-----------------------------------------------|
E|-----------------------------------------------|

CHORUS:
e|------------0~-------------0~------------------|
B|---3---3---3-3----3---3---3-3------------------|
G|--2-2-2-2-2---2--2-2-2-2-2---2-----------------|
D|-----------------------------------------------|
A|---------0-----0--------0-----0----------------|
E|-2---3----------2---3--------------------------|
Tap to rate this tab
# A B C D E F G H I J K L M N O P Q R S T U V W X Y Z