Song name
# A B C D E F G H I J K L M N O P Q R S T U V W X Y Z

Ben Lee - We Are All In This Together tab

Intro:

---4---4---4---4---4---4---4---4--|
---5---5---5---5---5---5---5---5--|
----------------------------------|
----------------------------------|
-----------------4---4---4---4----|
----------------------------------|


Verse:

 E	 F#	 C#m	 A

---4---4---4---4---4---4---4---4--|
---5---5---5---5---5---5---5---5--|
----------------------------------|
----------------------------------|
-----------------4---4---0---0----|
-0---0---2---2--------------------|
Tap to rate this tab
 
# A B C D E F G H I J K L M N O P Q R S T U V W X Y Z