Guitaretab - guitar tabs
Song name
# A B C D E F G H I J K L M N O P Q R S T U V W X Y Z

Ben Lee - Sex Without Love tab

This is my first tab Iíve done. So donít be too hard on me. Lol if anythings
wrong with it. Please consult me at Gracii-Duh@hotmail.com 

Tuning: Standard

| /  slide up
| \  slide down
| h  hammer-on
| p  pull-off
| ~  vibrato
| +  harmonic
| x  Mute note
| ^  Strum up

Intro *N.C
Heaven's above, sex without love
I thought you wanted me, i thought you wanted me
Heaven's above, sex without love
I thought i wanted you, i thought i wanted you

Intro:
Distortion

     Cm   Fm   Gm    Cm
E|---3----1----3--3--3-3--|
B|---3----1----3--3--3-3--|
G|---5----1----3--3--5-5--|
D|---5----3----5--5--5-5--|
A|---3----3----5--5--3-3--|
E|--------1----3--3-------|x2
               ^  ^  ^ 
Verse 1:
Clean
       Cm       Cm      Cm      Cm
E|------3-------3-------3-------3---|
B|------3-------3-------3-------3---|
G|------5-------5-------5-------5---|
D|------5-------5-------5-------5---|
A|--3-3-3-3-3-3-3-3-3-3-3-3-3-3-3---|
E|----------------------------------|
I   saw     you             At a
        Gm      Gm      Gm      Gm
E|------3-------3-------3-------3---|      
B|------3-------3-------3-------3---|
G|------3-------3-------3-------3---|
D|------5-------5-------5-------5---|
A|------5-------5-------5-------5---|
E|--3-3-3-3-3-3-3-3-3-3-3-3-3-3-3---|
    party                     And I
        Am      Am      Am      Am
E|------5-------5-------5-------5---|      
B|------5-------5-------5-------5---|
G|------5-------5-------5-------5---|
D|------7-------7-------7-------7---|
A|------7-------7-------7-------7---|
E|--5-5-5-5-5-5-5-5-5-5-5-5-5-5-5---|
   Asked  you   if        youíd like to
       Dm       Dm      Fm      Fm
E|------5-------5-------1-------1---|
B|------5-------5-------1-------1---|
G|------7-------7-------1-------1---|
D|------7-------7-------3-------3---|
A|--5-5-5-5-5-5-5-------3-------3---|
E|----------------1-1-1-1-1-1-1-1---| 
    dance        with me

       Cm       Cm      Cm      Cm
E|------3-------3-------3-------3---|
B|------3-------3-------3-------3---|
G|------5-------5-------5-------5---|
D|------5-------5-------5-------5---|
A|--3-3-3-3-3-3-3-3-3-3-3-3-3-3-3---|
E|----------------------------------|
     Then You asked me
        Gm      Gm      Gm      Gm
E|------3-------3-------3-------3---|      
B|------3-------3-------3-------3---|
G|------3-------3-------3-------3---|
D|------5-------5-------5-------5---|
A|------5-------5-------5-------5---|
E|------3-------3-------3-------3---|
For a ride home

        Am      Am      Am      Am
E|------5-------5-------5-------5---|      
B|------5-------5-------5-------5---|
G|------5-------5-------5-------5---|
D|------7-------7-------7-------7---|
A|------7-------7-------7-------7---|
E|--5-5-5-5-5-5-5-5-5-5-5-5-5-5-5---|
And I thought that I should take a
       Dm       Dm      Fm      Fm
E|------5-------5-------1-------1---|
B|------5-------5-------1-------1---|
G|------7-------7-------1-------1---|
D|------7-------7-------3-------3---|
A|--5-5-5-5-5-5-5-3-3-3-3-------3---|
E|----------------------1-1-1-1-1---| 
chance on you

Prechorus:
Clean

    Fm
E|--1-1-1-1-1-1-1-1-|
B|--1-1-1-1-1-1-1-1-|
G|--1-1-1-1-1-1-1-1-|
D|--3-3-3-3-3-3-3-3-|
A|--3-3-3-3-3-3-3-3-|
E|--1-1-1-1-1-1-1-1-| 
First weíre talking
    Cm
E|--3-3-3-3-3-3-3-3-|
B|--3-3-3-3-3-3-3-3-|
G|--5-5-5-5-5-5-5-5-|
D|--5-5-5-5-5-5-5-5-|
A|--3-3-3-3-3-3-3-3-|
E|--3-3-3-3-3-3-3-3-|
Then weíre kissing
    Fm
E|--1-1-1-1-1-1-1-1-|
B|--1-1-1-1-1-1-1-1-|
G|--1-1-1-1-1-1-1-1-|
D|--3-3-3-3-3-3-3-3-|
A|--3-3-3-3-3-3-3-3-|
E|--1-1-1-1-1-1-1-1-| 
Finding out what 
    Gm
E|--3-3-3-3-3-3-3-3-|      
B|--3-3-3-3-3-3-3-3-|
G|--3-3-3-3-3-3-3-3-|
D|--5-5-5-5-5-5-5-5-|
A|--5-5-5-5-5-5-5-5-|
E|--3-3-3-3-3-3-3-3-|
Iíve been missing

Chorus:
Distortion

     Cm   Fm   Gm    Cm
E|---3----1----3--3--3-3--|
B|---3----1----3--3--3-3--|
G|---5----1----3--3--5-5--|
D|---5----3----5--5--5-5--|
A|---3----3----5--5--3-3--|
E|--------1----3--3-------| x4
               ^  ^  ^ 
Heavenís above
Sex without love
I thought you wanted me
I thought you wanted me
Heavenís above
Sex without love
I thought I wanted you
I thought I wanted you
[ Tab from: http://www.guitaretab.com/b/ben-lee/99919.html ]
Verse 2:
Clean
       Cm       Cm      Cm      Cm
E|------3-------3-------3-------3---|
B|------3-------3-------3-------3---|
G|------5-------5-------5-------5---|
D|------5-------5-------5-------5---|
A|--3-3-3-3-3-3-3-3-3-3-3-3-3-3-3---|
E|----------------------------------|
    lay   down                Lay down
        Gm      Gm      Gm      Gm
E|------3-------3-------3-------3---|      
B|------3-------3-------3-------3---|
G|------3-------3-------3-------3---|
D|------5-------5-------5-------5---|
A|------5-------5-------5-------5---|
E|--3-3-3-3-3-3-3-3-3-3-3-3-3-3-3---|
beside me                       But
        Am      Am      Am      Am
E|------5-------5-------5-------5---|      
B|------5-------5-------5-------5---|
G|------5-------5-------5-------5---|
D|------7-------7-------7-------7---|
A|------7-------7-------7-------7---|
E|--5-5-5-5-5-5-5-5-5-5-5-5-5-5-5---|
    Here          we are and it feels 
       Dm       Dm      Fm      Fm
E|------5-------5-------1-------1---|
B|------5-------5-------1-------1---|
G|------7-------7-------1-------1---|
D|------7-------7-------3-------3---|
A|--5-5-5-5-5-5-5-------3-------3---|
E|----------------1-1-1-1-1-1-1-1---|
    weird        with you   I wish someone would 
       Cm       Cm      Cm      Cm
E|------3-------3-------3-------3---|
B|------3-------3-------3-------3---|
G|------5-------5-------5-------5---|
D|------5-------5-------5-------5---|
A|--3-3-3-3-3-3-3-3-3-3-3-3-3-3-3---|
E|----------------------------------|
tell me                    Where is my 
        Gm      Gm      Gm      Gm
E|------3-------3-------3-------3---|      
B|------3-------3-------3-------3---|
G|------3-------3-------3-------3---|
D|------5-------5-------5-------5---|
A|------5-------5-------5-------5---|
E|--3-3-3-3-3-3-3-3-3-3-3-3-3-3-3---|
Baby                            And 
        Am      Am      Am      Am
E|------5-------5-------5-------5---|      
B|------5-------5-------5-------5---|
G|------5-------5-------5-------5---|
D|------7-------7-------7-------7---|
A|------7-------7-------7-------7---|
E|--5-5-5-5-5-5-5-5-5-5-5-5-5-5-5---|
how I found myself right
       Dm       Dm      Fm      Fm
E|------5-------5-------1-------1---|
B|------5-------5-------1-------1---|
G|------7-------7-------1-------1---|
D|------7-------7-------3-------3---|
A|--5-5-5-5-5-5-5-------3-------3---|
E|----------------1-1-1-1-1-1-1-1---|
    here                tonight
Prechorus:
Clean
    Fm
E|--1-1-1-1-1-1-1-1-|
B|--1-1-1-1-1-1-1-1-|
G|--1-1-1-1-1-1-1-1-|
D|--3-3-3-3-3-3-3-3-|
A|--3-3-3-3-3-3-3-3-|
E|--1-1-1-1-1-1-1-1-|
This is not my
    Cm
E|--3-3-3-3-3-3-3-3-|
B|--3-3-3-3-3-3-3-3-|
G|--5-5-5-5-5-5-5-5-|
D|--5-5-5-5-5-5-5-5-|
A|--3-3-3-3-3-3-3-3-|
E|--3-3-3-3-3-3-3-3-|
kind of danger

    Fm
E|--1-1-1-1-1-1-1-1-|
B|--1-1-1-1-1-1-1-1-|
G|--1-1-1-1-1-1-1-1-|
D|--3-3-3-3-3-3-3-3-|
A|--3-3-3-3-3-3-3-3-|
E|--1-1-1-1-1-1-1-1-|
Taking candy 
    Gm
E|--3-3-3-3-3-3-3-3-|      
B|--3-3-3-3-3-3-3-3-|
G|--3-3-3-3-3-3-3-3-|
D|--5-5-5-5-5-5-5-5-|
A|--5-5-5-5-5-5-5-5-|
E|--3-3-3-3-3-3-3-3-|
from a stranger

Chorus
Distortion
     Cm   Fm   Gm    Cm
E|---3----1----3--3--3-3--|
B|---3----1----3--3--3-3--|
G|---5----1----3--3--5-5--|
D|---5----3----5--5--5-5--|
A|---3----3----5--5--3-3--|
E|--------1----3--3-------| x4
               ^  ^  ^

Heaven's above
Sex without love
I thought you wanted me
I thought you wanted me
Heaven's above
Sex without love
I thought I wanted you
I thought I wanted you


Solo:
Dirty
       ~          ~                   ~~
E|---------------------------------------|
B|---------------------------------------|
G|--9--10-------------9p7h9-7-5-4-4-5-5--|
D|---------9-9/10-10---------------------|
A|---------------------------------------|
E|---------------------------------------|

       ~        ~                   ~~
E|-----------------------------------------|
B|-----------------------------------------|
G|------------------------------9h7h9h7----|
D|-----------------------7h10----------10--|
A|--7--8-----------7-8h10------------------|
E|--------7-7/8-8--------------------------|

Prechorus:
Clean              
    Fm
E|--1-1-1-1-1-1-1-1-|
B|--1-1-1-1-1-1-1-1-|
G|--1-1-1-1-1-1-1-1-|
D|--3-3-3-3-3-3-3-3-|
A|--3-3-3-3-3-3-3-3-|
E|--1-1-1-1-1-1-1-1-|
This whole thing is


    Cm
E|--3-3-3-3-3-3-3-3-|
B|--3-3-3-3-3-3-3-3-|
G|--5-5-5-5-5-5-5-5-|
D|--5-5-5-5-5-5-5-5-|
A|--3-3-3-3-3-3-3-3-|
E|--3-3-3-3-3-3-3-3-|
getting strange   I
    Fm
E|--1-1-1-1-1-1-1-1-|
B|--1-1-1-1-1-1-1-1-|
G|--1-1-1-1-1-1-1-1-|
D|--3-3-3-3-3-3-3-3-|
A|--3-3-3-3-3-3-3-3-|
E|--1-1-1-1-1-1-1-1-|
sorta wish        I 
    Cm
E|--3-3-3-3-3-3-3-3-|
B|--3-3-3-3-3-3-3-3-|
G|--5-5-5-5-5-5-5-5-|
D|--5-5-5-5-5-5-5-5-|
A|--3-3-3-3-3-3-3-3-|
E|--3-3-3-3-3-3-3-3-|
    Never came
    Fm
E|--1-1-1-1-1-1-1-1-|
B|--1-1-1-1-1-1-1-1-|
G|--1-1-1-1-1-1-1-1-|
D|--3-3-3-3-3-3-3-3-|
A|--3-3-3-3-3-3-3-3-|
E|--1-1-1-1-1-1-1-1-|
All this talk and
    Cm
E|--3-3-3-3-3-3-3-3-|
B|--3-3-3-3-3-3-3-3-|
G|--5-5-5-5-5-5-5-5-|
D|--5-5-5-5-5-5-5-5-|
A|--3-3-3-3-3-3-3-3-|
E|--3-3-3-3-3-3-3-3-|
playing games
    Fm
E|--1-1-1-1-1-1-1-1-|
B|--1-1-1-1-1-1-1-1-|
G|--1-1-1-1-1-1-1-1-|
D|--3-3-3-3-3-3-3-3-|
A|--3-3-3-3-3-3-3-3-|
E|--1-1-1-1-1-1-1-1-|
Is slowly driving

Distortion
     Gm   Gm   Gm   Gm  Gm Gm
E|---3----3----3----3---3--3--|      
B|---3----3----3----3---3--3--|
G|---3----3----3----3---3--3--|
D|---5----5----5----5---5--5--|
A|---5----5----5----5---5--5--|
E|---3----3----3----3---5--3--|
    Me    in - sane


*N.C
Heaven's above
Sex without love
I thought you wanted me
I thought you wanted me
     Cm   Fm   Gm    Cm
E|---3----1----3--3--3-3--|
B|---3----1----3--3--3-3--|
G|---5----1----3--3--5-5--|
D|---5----3----5--5--5-5--|
A|---3----3----5--5--3-3--|
E|--------1----3--3-------|
               ^  ^  ^
Heaven's above Sex without love
     Cm   Fm   Gm    Cm
E|---3----1----3--3--3-3--|
B|---3----1----3--3--3-3--|
G|---5----1----3--3--5-5--|
D|---5----3----5--5--5-5--|
A|---3----3----5--5--3-3--|
E|--------1----3--3-------|
               ^  ^  ^
I thought I wanted you I thought I wanted you

     Cm   Fm   Gm    Cm
E|---3----1----3--3--3-3--|
B|---3----1----3--3--3-3--|
G|---5----1----3--3--5-5--|
D|---5----3----5--5--5-5--|
A|---3----3----5--5--3-3--|
E|--------1----3--3-------|
               ^  ^  ^
Oh oh Sex without love     
     Cm   Fm   Gm    Cm
E|---3----1----3--3--3-3--|
B|---3----1----3--3--3-3--|
G|---5----1----3--3--5-5--|
D|---5----3----5--5--5-5--|
A|---3----3----5--5--3-3--|
E|--------1----3--3-------| 
               ^  ^  ^
Oh oh Sex without love
     Cm   Fm   Gm    Cm
E|---3----1----3--3--3-3--|
B|---3----1----3--3--3-3--|
G|---5----1----3--3--5-5--|
D|---5----3----5--5--5-5--|
A|---3----3----5--5--3-3--|
E|--------1----3--3-------|
               ^  ^  ^
Oh oh Sex without love
     Cm   Fm   Gm    Cm
E|---3----1----3--3--3-3--|
B|---3----1----3--3--3-3--|
G|---5----1----3--3--5-5--|
D|---5----3----5--5--5-5--|
A|---3----3----5--5--3-3--|
E|--------1----3--3-------|
               ^  ^  ^
Oh oh Sex without love
Related for Sex Without Love tab