Song name
# A B C D E F G H I J K L M N O P Q R S T U V W X Y Z

Ben Marchand - Green Reign tab

                             GREEN REIGN
                             Ben Marchand
This song is played with finger-picking, slowly, and in 4/4 time. Playing with feeling 
how it was written. Written by Ben Marchand a 13 year old kid. Comment if you like it.

       Am        F           C            G
E|----------|----------|-----0----|-----1----|
B|---1---1--|---1---1--|-1--1-1---|-0----0---|
G|---2---2--|---2---2--|---0---0--|----0--0--|
D|--2-2-2-2-|--3-3-3-3-|--2-----2-|---0----0-|
A|-0---0----|-3---3----|-3--------|--2-------|
E|----------|----------|----------|-3--------|


       Am        F          G        C      E7        Am
E|----------|----------|----------|----0-|------|------------0-|
B|---1---1--|---1---1--|---0---0--|-1----|-0--3-|-3-p1--0 h1---|
G|---2---2--|---2---2--|---0---0--|---0--|---1--|------2-------|
D|--2-2-2-2-|--3-3-3-3-|----0-0-0-|--2---|--0---|-----2------0-|
A|-0---0----|-3---3----|--2--2----|-3----|-2----|-0------------|
E|----------|----------|-3--------|------|------|--------------|


       Dm          E7            Am       Am
E|-1--3-p1-0--|--------0---|-------0-----|-5-|
B|---3----3-0-|-0--3-p0-0--|-0-h1---1----|-5-|
G|--2---------|---2------1-|------2--2---|-5-|
D|-0----------|--0---------|-----2----2--|-7-|
A|------------|-2----------|-0-----------|-7-|
E|------------|------------|-----------0-|-5-|
Tap to rate this tab
 
# A B C D E F G H I J K L M N O P Q R S T U V W X Y Z