Song name
# A B C D E F G H I J K L M N O P Q R S T U V W X Y Z

Ben Marwood - Question Marks tab

Same riff throughout the verses, fingerpicked as usual.

----------------------|
----------------------|
--12--11--9--7--5--7--|
--12--11--9--7--5--7--|
--10--9---7--5--3--5--|
----------------------|x4

He met her eyes at a party now i'll meet his face with my
fist until all that surrounds me is smothered and covered in
kisses that heal all the hurt that she feels and which answer down roads on the
streetlights at home on the nights when noone was there to guide her and keep her from

-------------|
-------------|
--12--11--9--|
--12--11--9--|
--10--9---7--|
-------------|

doing harm

--------------|
--------------|
--5--7--9--9--|
--5--7--9--9--|
--3--5--7--7--|
--------------|

And I gathered them all on the morning

--------------------|
--------------------|
--5--7---12--11--9--|
--5--7---12--11--9--|
--3--5---10--9---7--|
--------------------|x2


and I wait for you all just to settle down
I tell you all about how get cape wear cape stole my sound

--------------|
--------------|
--5--7--9--9--|
--5--7--9--9--|
--3--5--7--7--|
--------------|

and i'm telling you it doesnt matter now

verse

----------------------|
----------------------|
--12--11--9--7--5--7--|
--12--11--9--7--5--7--|
--10--9---7--5--3--5--|
----------------------|x4

Well I will not reach revolution, cause i'm not so dumb as to
think that I have the solution, to all of these things and as i've
sat at the back of the funeral packed with the grievers and mourners it
occured to me that the things that we see aren't nearly as vital as

-------------|
-------------|
--12--11--9--|
--12--11--9--|
--10--9---7--|
-------------|

those we dont

--------------|
--------------|
--5--7--9--9--|
--5--7--9--9--|
--3--5--7--7--|
--------------|

and I gathered them all on the morning

--------------------|
--------------------|
--5--7---12--11--9--|
--5--7---12--11--9--|
--3--5---10--9---7--|
--------------------|x2

and I wait for you all to just settle down
I tell you all about how get cape wear cape stole my sound

--------------|
--------------|
--5--7--9--9--|
--5--7--9--9--|
--3--5--7--7--|
--------------|

and i'm telling you it doesnt matter now

verse

----------------------|
----------------------|
--12--11--9--7--5--7--|
--12--11--9--7--5--7--|
--10--9---7--5--3--5--|
----------------------|x2

I seek to find if i'm more alive than ever before
you left me hurt and so far from dry in light of this downpour

-------------------------|
-------------------------|
--12--11--9--7--5--7--9--|
--12--11--9--7--5--7--9--|
--10--9---7--5--3--5--7--|
-------------------------|

and these question marks they are not question marks any more
Tap to rate this tab
 
# A B C D E F G H I J K L M N O P Q R S T U V W X Y Z