Ben Marwood - Five Little Secrets tab

This version is for those of you without a Capo. I personally play it with a Capo on 
5th, as it's way easier, but this is the way Ben plays. If you're using a capo, then -

|---|              |---|
|-6-|              |-1-|
|-7-|              |-2-|
|-7-|              |-2-|
|-5-|    becomes   |-0-|
|---|              |---|

and so on. Enjoy!

Intro

-------------------------------------------------------------------|
---6-----6---6-----6---6---6---6---6----6---6---6---6---6---6---6--|
---7-----7---7-----7---5---5---5---5----7---7---7---7---7---7---7--|
-----5h7-------5h7-------7-------7----8---8-7-----7---5-------7----|
-5---------5---------8-------8----------------8-----------8--------|
-------------------------------------------------------------------|

----------------------------------------------------|
------------------------6-----6---6------6-----6----|
----6---6----6-----6----7-----7---7------7-----7----|
----7---7----7-----7------5h7-------5h7----5h7------|
------7---------7-----5---------5-------5--------5--|
--5--------5----------------------------------------|

pause for a sec after the last note. Verse is mostly the same as the Intro


-------------------------------------------------------------------|
---6-----6---6-----6---6---6---6---6----6---6---6---6---6---6---6--|
---7-----7---7-----7---5---5---5---5----7---7---7---7---7---7---7--|
-----5h7-------5h7-------7-------7----8---8-7-----7---5-------7----|
-5---------5---------8-------8----------------8-----------8--------|
-------------------------------------------------------------------| x2

So he knows something you don't, Five little secrets whispered oh
and you had something to say, but the people were all peasants so you walked a-


-----------------------------------|
---6---6---6---6-------------------|
---5---5---5---5---6---6---6---6---|
-----7-------7-----7---7---7---7---|
-8-------8-----------7-------7-----|
-----------------5-------5---------|

-way from this avalanche and left me for dead,

-----------------------------------|
---6---6---6---6-------------------|
---7---7---7---7---7---7---7---7---|
-----7-------7-----8---8---8---8---|
-5-------5-----------8-------8-----|
-----------------6-------6---------|

they were all messages and this is what they said

-----------------------------------------------|
---10----10---10-----10------------------------|
---10----10---10-----10----9-----9----9-----9--|
------10---------10-------10----10---10----10--|
-8----------8----------------10---------10-----|
------------------------8----------8-----------|

I don't think you're ready yet

----------------------------------|
---6-----6---6-----6---6-----6----|
---7-----7---7-----7---7-----7----|
-----5h7-------5h7-------5h7------|
--5--------5---------5---------5--|
----------------------------------|

verse again, it's the same except for ^^^^ that bar.

She thinks i'm drunk but i'm not, there are just so many reasons we can't get caught,
and the sound of the shot is the sound of our heartstrings pulling taught
oh it's scandalous these, tales of woe
these are the memories and this is how they go
I don't think we're in control,

---------------------------------------|
---6-----6---6-----6-------------------|
---7-----7---7-----7----7---7---7---7--|
-----5h7-------5h7------8---8---8---8--|
--5--------5--------------8-------8----|
----------------------6-------6--------|

but it's okay


chorus

------------------------|
---10----10---10-----10-|
---10----10---10-----10-|
------10---------10-----|
-8----------8-----------|
------------------------|x2

cause no ones going to listen to a word that you say

------------------------|
------------------------|
----9-----9----9-----9--|
---10----10---10----10--|
------10---------10-----|
-8----------8-----------|x2

they read your body language and think everythings okay

------------------|
---6---6---6---6--|
---7---7---7---7--|
-----7-------7----|
--5------5--------|
------------------|x2

now the pennys dropped, the past is slain,

-------------------|
-------------------|
----7---7---7---7--|
----8---8---8---8--|
------8-------8----|
--6-------6--------|x2

the rhythm of your pulse triggers action in your brain

------------------------|
---10----10---10-----10-|
---10----10---10-----10-|
------10---------10-----|
-8----------8-----------|
------------------------|x2

so even as I talk to you these memories will fade,

------------------------|
------------------------|
----9-----9----9-----9--|
---10----10---10----10--|
------10---------10-----|
-8----------8-----------|x2

spirited away in a slick dawn raid

------------------|
---6---6---6---6--|
---7---7---7---7--|
-----7-------7----|
--5------5--------|
------------------|x2

but I never met a man who regrets the way he felt

-----------------------------------|
-----------------------------------|
----7---7---7---7---6---6---6---6--|
----8---8---8---8---7---7---7---7--|
------8-------8-------7-------7----|
--6-------6-------5-------5--------|

when your eyes first met and your heart began to melt

Bridge - listen to the song while following this bit to get it, I couldn't come up with 
a decent way to tab it since it's a bit stop/start. It's played twice.

--------------------------------------|
---6-----6---6-----6---6---6---6---6--|
---7-----7---7-----7---5---5---5---5--|
-----5h7-------5h7-------7-------7----|
-5---------5---------8-------8--------|
--------------------------------------|

-----------------------------------|
-----------------------------------|
----6---6---6---6---6---6---6---6--|
----7---7---7---7---7---7---7---7--|
------7-------7-------7-------7----|
--5-------5-------5-------5--------|

-----------------------------------|
-----------------------------------|
----7---7---7---7---7---7---7---7--|
----8---8---8---8---8---8---8---8--|
------8-------8-------8-------8----|
--6-------6-------6-------6--------|

-----------------------------------|
-----------------------------------|
----7---7---7---7---6---6---6---6--|
----8---8---8---8---7---7---7---7--|
------8-------8-------7-------7----|
--6-------6-------5-------5--------|

if only your eyes replaced the fear
and not the memory of the past few years
la da da dum la la la laaaaaa (oh Ben)


Verse

and now everythings fine, only happy endings all the time
and we're getting you help, and everyone we know is doing well until
the curtain drops and it's all a show
these are professionals and this is all they know
I don't think we're in control

---------------------------------------|
---6-----6---6-----6-------------------|
---7-----7---7-----7----7---7---7---7--|
-----5h7-------5h7------8---8---8---8--|
--5--------5--------------8-------8----|
----------------------6-------6--------|

but it's okay

chorus

cause no ones going to listen to a word that you say
they read your body language and think everythings okay
now the pennys dropped, the past is slain,
the rhythm of your pulse triggers action in your brain
so even as I talk to you these memories will fade,
spirited away in a slick dawn raid
but I never met a man who regrets the way he felt
when your eyes first met and your heart began to melt

----------------------------------|
---6-----6---6-----6---6-----6----|
---7-----7---7-----7---7-----7----|
-----5h7-------5h7-------5h7------|
--5--------5---------5---------5--|
----------------------------------|


It's a great song and pretty easy to play once it clicks in your head. Sorry if the tab 
was a little hard to follow, but with all the sections and slight variations I wanted to 
make sure I got it all.
Tap to rate this tab
 
# A B C D E F G H I J K L M N O P Q R S T U V W X Y Z