Song name
# A B C D E F G H I J K L M N O P Q R S T U V W X Y Z

Ben Marwood - The District Sleeps Alone Tonight tab

Ben Marwood - The District Sleeps Alone Tonight (Postal Service Cover)

Song: http://www.youtube.com/watch?v=fPUKqQEhhxg

Tabbed by Chrissi McGrane and Neil Wicker

First tab!



----------0-----------0------------0----------0---------0----------|
----1-----------1------------1-----------1---------1---------1-----|
-------------------------------------------------------------------|
--------------------------3-----3-----3----3-----------------------|
-3-----3-----3-----3-----------------------------0----0----0----0--|
-------------------------------------------------------------------|

0------------------0------------0----------------------------------|
---0h1-----1-------------1-----------------------------------------|
-------------------------------------------------------------------|
-------------------------------------------------------------------|
--------0------0------2-----3--------------------------------------|
-------------------------------------------------------------------|    x6

Smeared black ink... your palms are sweaty
And I'm barely listening to last demands
I'm staring at the asphalt wondering what's buried underneath 

----------0-----------0-----------0-----------0--------------------|
----1-----------1-----------1-----------1-------------------0------|
------------------------------------------------------0------------|
-3-----3-----3-----3-----------------------------------------------|
-------------------------3-----3-----3-----3-----------------------|
---------------------------------------------------3-----3-----3---|
 
-------------------------------------------------------------------|
-------0-----------0-----------0-----------------------------------|
-0-----------0-----------0-----------------------------------------|
-------------------------------------------------------------------|
-------------------------------------------------------------------|
----3-----3-----3-----3-----3--------------------------------------|   x2

Where I am
Where I am 

---------------------------------------------------------------------|
----------1-----------1------------1-----------1----------1----------|
----0-----------0------------0-----------0----------0-----------0----|
--------------------------3-----3-----3-----3------------------------|
-3-----3-----3-----3-----------------------------0-----0-----0-----0-|
---------------------------------------------------------------------|

-------------------------------------------------------------------|
1--0h1------------1------------------------------------------------|
-----------0------------0------------------------------------------|
-------------------------------------------------------------------|
--------0-----0------2-----3---------------------------------------|
-------------------------------------------------------------------|   x4 
(pick up speed here) 

wear my badge... a vinyl sticker with big block letters adherent to my chest
That tells your new friends, I am a visitor here...
I am not permanent


-------------------------------------------------------------------|
-------------------------------------------------------------------|
-------------------------------------------------------------------|
-----------3----------2--------------------------------------------|
---3-------------------------------3-------------------------------|
------------------------------------------1-------3----------------|    
And the only thing keeping me dry is

-------------------------------------------------------------------|
-----------3-----------3-----------3-------------3-----------------|
-----2-----------2-----------0------------0------------------------|
--3-----3-----3-----3----------------------------------------------|
--------------------------3-----3------3-----3---------------------|
-------------------------------------------------------------------|    

-----------------------0-------------------------------------------|
-----------3-----------------------3------------3------------------|
-----0-----------0-----------0-----------0-------------------------|
-------------------------------------------------------------------|
-------------------------------------------------------------------|
--3-----3-----3-----3-----3-----3-----3-----3----------------------|    x3
You seem so out of context in this gaudy apartment complex
A stranger with your door key explaining that I am just visiting
And I am finally seeing 
Why I was the one worth leaving
-----------0-----------0-----------0-------------0-----------------|
-------------------------------------------------------------------|
-----2-----------2-----------0------------0------------------------|
--3-----3-----3-----3----------------------------------------------|
--------------------------3-----3------3-----3---------------------|
-------------------------------------------------------------------|  
  
-----------0-----------0-----------0-----------0-------------------|
-------------------------------------------------------------------|
-----0-----------0-----------0-----------0-------------------------|
-------------------------------------------------------------------|   
-------------------------------------------------------------------|
--3-----3-----3-----3-----3-----3-----3-----3----------------------|  x7
(slower on last repeat)


Why I was the one worth leaving

Where I am
Where I am
Where I am

The district sleeps alone tonight after the bars turn out their lights
And send the autos swerving into the loneliest evening
And I am finally seeing 
Why I was the one worth leaving
Why I was the one worth leaving
Why I was the one worth leaving
Why I was the one worth leaving   

End on:
---|
---|
---|
-3-|
---|
---|


Tap to rate this tab
# A B C D E F G H I J K L M N O P Q R S T U V W X Y Z