Song name
# A B C D E F G H I J K L M N O P Q R S T U V W X Y Z

Ben Marwood - Toil tab

Ben Marwood - Toil
Tab by Neil Wicker
Standard tuning.
sounds right to me but let me know if you find any mistakes.


Intro:
------------------------------------|
----4-----------6-----9-------------|
----------2-------------------------|
------------------------------------|     x2
----2-----------4-----7-------------|
----------2-------------------------|

If you hear this song aloud, when I am not around
Please know that everything will be alright, and life canít hurt you now.
If youre sick of days a quiver, is it time to stand and shout
Send your enemies to hiding instead of hiding out.


------7-------9------9-----7--------------------------------------|
------9-------7------7-----5--------4----------5-------9----------|
------8-------8------8-----6--------4-----2----6------------------|
------6-------6---------------------2-----3----6------------------|
---------------------7----4---------2-----3----4-------7----------|
------------------------------------------2-----------------------|

Verse 1:

--7--------9--------9---------7--------------|
--9--------7--------7---------5---------4----|
--8--------8--------8---------6---------4----|
--6--------6----------------------------2----|
--------------------7---------4---------2----|
---------------------------------------------|

Believe me when I say Im at peace with the day
When the dead will rise and take me to my grave.

 -----------------------7-------------------------------|
----------------5-------9--------5----------------4-----|
-------2--------6-------8--------6----------4-----4-----|
-------3--------6-------6--------6----------6-----2-----|
-------3--------4----------------4----------6-----2-----|
-------2------------------------------------4-----------|

But it's easier to look the other way
and no matter what your fucking neighbours say




--------------  ----------------0--------|
--------5---  ---------------------------|
--3-----6---  ------------3--------------|
--4-----6----  ----6------4-----2--------|
--4-----4----  ----6------4-----2--------|
--2-----------  ---4------2-----0--------|

I refuse to sober up and so, decay


-------------|
--5-----9----|
--6----------|
--6----------|
--4-----7----|
-------------|

Its what you say.



Chorus:

-------------------------------|
--4--------------5-------8-----|
--4------2-------6-------8-----|
--2------3-------6-------6-----|
--2------3-------4-------6-----|
---------2---------------------|

If you hear this song aloud when I am not around, please know that everything will be alright and
Life can't hurt you now.


------------------------------|
--4--------------5------9-----|
--4------2-------6------------|
--2------3-------6------------|
--2------3-------4------7-----|
---------2--------------------|

If youre sick of days a quiver, is it time to stand and shout
Send your enemies to hiding, instead of hiding out.




(do this once again)

------7-------9------9-----7--------------------------------------|
------9-------7------7-----5--------4----------5-------9----------|
------8-------8------8-----6--------4-----2----6------------------|
------6-------6---------------------2-----3----6------------------|
---------------------7-----4--------2-----3----4-------7----------|
-------------------------------- ---------2-----------------------|

Verse 2:
(Same as first verse)

Believe me when I shout
there's no point freaking out
you can't claim a single second lost to doubt
it's the movement of the atmosphere
the way you choose to disappear
the silent shout that's what you hear
back up     (stop playing here)   < your regrets
and wind down the days you   >


------------0----|
-----------------|
-------3---------|
--6----4----2----|
--6----4----2----|
--4----2----0----|

Toil

-------------|
--5-----9----|
--6----------|
--6----------|
--4-----7----|
-------------|

write my name into the soil

Chorus:
(same)
If you hear this song aloud when I am not around
please know that everything will be alright
and life can't hurt you now
send your enemies to hiding instead of hiding out

-----------------7----|
--4---------5----9----|
--4----2----6----8----|
--2----3----6----6----|
--2----3----4---------|
-------2--------------|

And yes it's true we've loved and lost but in the end we've won
we've the best in friends and family and an endless thirst for fun

-----------------7-------------|
--4---------5----9----4--------|
--4----2----6----8----4----2---|
--2----3----6----6----2----3---|
--2----3----4---------2----3---|
-------2-------------------2---|

with a love of the macabre and a sideline for bad jokes
we'd rather sing of Lovecraft than sit through
Hollyoaks.



-------7----|
--5----9----|
--6----8----|
--6----6----|
--4---------|
------------|

no, no.


-------------------------------|
-------------------5----9------|
--4----4-----4-----6-----------|
--6----4-----------6-----------|
--6----2-----------4----7------|
--4----2-----2-----------------|


Chorus:
(same as intro)
If you hear this song aloud when I am not around
please know that everything will be okay
though I am in the ground
'cause it isn't where you finish, it's the way you run this race
and I intend to go the distance, but I'll do it at my own pace.
Tap to rate this tab
# A B C D E F G H I J K L M N O P Q R S T U V W X Y Z