Song name
# A B C D E F G H I J K L M N O P Q R S T U V W X Y Z

Ben Marwood - Claire tab

This should be easy enough to work out, if there's any problems just send me a message 
on this site. Enjoy!


verse (xLots)

-----------------|
---------8-------|
-11---11---11----|
----9---------9--|
-----------------|
-----------------|


Well I took abuse as a poor excuse
in some social circles only to find
what a waste of time it was to be nervous and
when I see you i'm on fire
from the words I finally heard
not taken just taking my time


Chorus (x2)

-3-----3------5-----5-----|
---3-----3------3-----3---|
-----0-----0------4-----4-|
--------------------------|
--------------------------|
--------------------------|

-0---0---2---2---3---3---5---5---7---7---5---5---3---3---2---2---0---0---0---0---2---2---3---3--|
---0-------0-------0-------0-------0-------0-------0-------0-------0-------0-------0-------0----|
------------------------------------------------------------------------------------------------|
------------------------------------------------------------------------------------------------|
------------------------------------------------------------------------------------------------|
------------------------------------------------------------------------------------------------|

Claire, if you don't come home tonight
I will take it as red that the things that you said
didn't come to much more than a lie
and life is hard on breaking hearts, sometimes

Verse

When I heard the news well I just refused
to even acknowledge how we arrived at this
point in time without even noticing
this is not what you had planned for the days
you whittled away to within an inch of their lives

Chorus

Claire, if you don't come home tonight
I will take it as red that the things that you said
didn't come to much more than a lie
and life is hard on breaking hearts, sometimes
and these are the lessons you learn from the questions you find

Bridge - Uses the initial part of the chorus but is all picked at once, i'm not 100% on 
this part

And well I know this isn't living but at least we're alive
With this lust for better days and the hope that things will change
And yeah I know, this isn't mensa but at least we're alright
with this knack for holding on and the sense that somethings wrong

Chorus

Claire, if you don't come home tonight
I will take it as red that the things that you said
didn't come to much more than a lie
and life is hard on breaking hearts, sometimes
and these are the lessons your learn from the questions you sidestep and answers avoided 
that you'll never find
if you don't come home tonight
Tap to rate this tab
# A B C D E F G H I J K L M N O P Q R S T U V W X Y Z