Song name
# A B C D E F G H I J K L M N O P Q R S T U V W X Y Z

Ben Marwood - Heathens tab

Intro:
e|-9-----------9--------7-----------7-----5-----------5-----5------------4---|
B|-------7--------7------------5--------5--------3--------3--------3---------|
G|-8--8-----8-----------6--6-----6--------4--4-----4--------4--4-----4---5---|
D|---------------------------------------------------------------------------|
A|---------------------------------------------------------------------------|
E|---------------------------------------------------------------------------|

e|-3-----------3--2-----------2--2-----------2--3----------3--3-----------3--|
B|-------1--------------1--------------1--------------1-------------1--------|
G|-2--2-----2-----2--2-----2-----2--2-----2-----2--2-----2----2--2-----2-----|
D|---------------------------------------------------------------------------|
A|---------------------------------------------------------------------------|
E|---------------------------------------------------------------------------|

e|-----------3-----------3--3------------------------------------------------|
B|-----------------1---------------------------------------------------------|
G|-h2--2--2-----2-----2------------------------------------------------------|
D|---------------------------------------------------------------------------|
A|---------------------------------------------------------------------------|
E|---------------------------------------------------------------------------|

Verse1:

(Same pattern as the intro but the slower part at the start is picked at the same speed 
as the rest)
Intro pattern x2

All of a sudden, I am lost without a care, for books Iíve read, for hanging heads, for 
hearts and mouths and a sense of dread.
You might think its gritty girl but it does not compare, to all i know, the open road, 
the sights and sounds when Iím far from home


e|--2-----------2--|
B|--------1--------|
G|--2--2-----2-----| x8
D|-----------------|
A|-----------------|
E|-----------------|

And all I know, is that there is

e|--3-----------3--|
B|--------1--------|
G|--2--2-----2-----| x8
D|-----------------|
A|-----------------|
E|-----------------|

No where left to run, and in a second thereíll be nowhere left to go


e|--2-----------2--|
B|--------1--------|
G|--2--2-----2-----| x8
D|-----------------|
A|-----------------|
E|-----------------|

And Iíll thank God, only when I

e|--3-----------3--|
B|--------1--------|
G|--2--2-----2-----| x7
D|-----------------|
A|-----------------|
E|-----------------|

  Know that there are heathens looking on and I want them to know theyíre wrong

e|--5--3-----3-----3----|
B|----------------------|
G|--4--2-----2----------| x4
D|--------2-----0--0----|
A|----------------------|
E|----------------------|

(Listen to the song timing here)
If you really want me to be strong, again
Wonít you call back the army who turned, and fled.
Do you really think I would trust this.
With the fickle hand of justice at my throat
And now all I need is a hand to hold on to

(intro again)

Verse2: (same)
A lie, a look, a chance you took, right before my eyes
And now itís crystal clear, after all these years
That itís me that you love, yeah but itís me that you fear

Verse3: (same)
Sitting, simmering, all this time
Now in this make shift noose, I will make my truce
And youíll never know why, and thatís whatíll kill you

e|--2-----------2--|
B|--------1--------|
G|--2--2-----2-----| x8
D|-----------------|
A|-----------------|
E|-----------------|

And all I know, is that there is


e|--3-----------3--|
B|--------1--------|
G|--2--2-----2-----| x8
D|-----------------|
A|-----------------|
E|-----------------|

No where left to run, and in a second thereíll be nowhere left to go


e|--2-----------2--|
B|--------1--------|
G|--2--2-----2-----| x8
D|-----------------|
A|-----------------|
E|-----------------|

And Iíll thank God, only when I

e|--3-----------3--|
B|--------1--------|
G|--2--2-----2-----| x8
D|-----------------|
A|-----------------|
E|-----------------|

  Know that there are heathens looking on and I want them to know theyíre wrong

e|--2-----------2--|
B|--------1--------|
G|--2--2-----2-----| x8
D|-----------------|
A|-----------------|
E|-----------------|

If you really want me to be strong, again

e|--3-----------3--|
B|--------1--------|
G|--2--2-----2-----| x8
D|-----------------|
A|-----------------|
E|-----------------|

Wonít you call back the army that turned and fled

e|--2-----------2--|
B|--------1--------|
G|--2--2-----2-----| x8
D|-----------------|
A|-----------------|
E|-----------------|

Wonít you show me a way i can raise the dead

e|--3-----------3--|
B|--------1--------|
G|--2--2-----2-----| x7
D|-----------------|
A|-----------------|
E|-----------------|

You can wipe the slate clean but you canít forget me, now
Tap to rate this tab
# A B C D E F G H I J K L M N O P Q R S T U V W X Y Z