Song name
# A B C D E F G H I J K L M N O P Q R S T U V W X Y Z

Ben Marwood - I Know What I Did Last Summer tab

-------------------------------------------------------------------------------
                I know what I did last summer - Ben Marwood
-------------------------------------------------------------------------------
Tabbed by: Neil Wicker
E-mail: wicker101@hotmail.co.uk

Tuning: Standard

Finally managed to tab this out, I tried to space it out well so the timing is easier to 
get but it is quite a difficult song.
Here's a guitar-only cover I did - http://soundcloud.com/wicker101/i-know-what-i-did-last-summer
Playing along with the song should help as well.


Intro and Verse:

e|--------------|--------------|--------------|--------------|
B|-----------1--|-----------1--|-----------1--|-----------5s6|
G|-----2--------|-----2--------|-----0--------|-----0--------|
D|--------------|--------------|--------------|--------------|
A|--0-----0-----|--0-----0-----|--3-----3-----|--3-----7-----|
E|--------------|--------------|--------------|--------------|

e|--------------|--------------|--------------|---------------------|
B|-----------6s5|-----------5s8|-----------8--|-----8s10------10s3--|
G|-----0--------|-----0--------|-----0--------|---------------------|
D|--------------|--------------|--------------|---------------------|
A|--8-----8-----|--7-----7-----|--10----10----|--10-------12--------|
E|--------------|--------------|--------------|---------------------|

e|-----------3--|-----------3s8|--------------|--8--7--5--3---|
B|--------------|-----3--------|-----6-----6--|---------------|
G|-----0--------|--------------|--------------|---------------|
D|--------------|--------------|--------------|---------------|
A|--5-----5-----|--5-----5-----|--8-----8-----|--8--7--5--3---|
E|--------------|--------------|--------------|---------------|

e|--------3-----|-------------------|
B|-----1--------|---3-------4-------|
G|--------------|--------0--------0-|
D|--------------|-------------------|
A|--3-------3--2|-------------------|
E|--------------|---3--3----4--4----|

I may not be here tomorrow but if I am
well then bad luck cause I'll still be
dancing around in this ditch of a town
trying to fuck things up

and I want you to know that I love you
and in the end, I always will
but you've got so cold
my prediction is fact
?
brings the friction

 Chorus 1:

e|---------|
B|-(1)-----|
G|--2------|
D|---------|
A|--0------|
E|---------|

now all I can hear is the moans and the breaths
of you and your lover, and you are with another now

verse:
go, lalalala

I'll always remember the summer of a long weekends and
making dens, the city as the sky turned bland
the sick and sly and sleight of hand

the quiet revelations in the blistering cold
the many ? of the lies I sadly told
that never meant to hurt you dears
the gripping and the grinning from ear to ear


Chorus 2:

e|---------------------------|------------------------|---------------------|
B|-(1)-3--1-------3s5--1--3--|--1-----1----------1----|----3h4-----------4--|
G|--2--2---------------2--2--|--0-----------0---------|------------0--------|
D|-----0--2---------------0--|------------------------|---------------------|
A|--0-----3--2p0-------0-----|--3--3-----3----2-------|---------------------|
E|----------------3----------|---------------------3--|-3-------4-----4-----|

now all I can hear is the moans and the breaths
of you and your lover, and you are with another now

la la la section

   Am                          D
e|--------------------------|----------------------------|
B|-----------1-----------1--|-----------3-----------1----|
G|-----------------2--------|-----------------2----------|
D|--------------------------|--0-----0-----0-----0-------|
A|--0-----0-----0-----0-----|----------------------------|
E|--------------------------|----------------------------|

    C                          G
e|--------------------------|----------------------------|
B|-----------1-----------1--|-----------3s4-----------4--|
G|-----------------0--------|-------------------0--------|
D|--------------------------|----------------------------|
A|--3-----3-----3-----2-----|----------------------------|
E|--------------------------|--3-----3-------4-----4-----|

repeat this in the last 2 verses as well. (although it sounds slightly lacking without 
the piano in the background, probably why he doesn't play this live)

all of these good times and memories
made me feel like a victim of teenage TV
and every time you start your flowery speech
I expect to hear Death Cab start three feet behind me

cause your walking the walk and dreaming the dream
but it feels like you're living the fucking OC
and the twists and turns and the lessons learned
are the plot lines of rich kids with money to burn

last chorus:

e|---------------------------|--------------------|
B|-(1)-3--1-------3s5--1--3--|--1-------3s5--1----|
G|--2--2---------------2--2--|--0------------2----|
D|-----0--2---------------0--|--------------------|
A|--0-----3--2p0-------0-----|--3--2p0-------0----|
E|----------------3----------|----------3---------|

now all I can hear is the moans and the breaths
of you and your lover, and you are with another now

now all I can taste are the thick beads of sweat
as they roll from your breast to the place, where it all collects

************************************

| /   slide up
| \   slide down
| h   hammer-on
| p   pull-off
| ~   vibrato
| +   harmonic
| x   Mute note
| b   Bend
| pb  Pre-bend
| br  Bend release
| pbr Pre-bend release
| brb Bend release bend

************************************
Tap to rate this tab
 
# A B C D E F G H I J K L M N O P Q R S T U V W X Y Z