Song name
# A B C D E F G H I J K L M N O P Q R S T U V W X Y Z

Ben Nichols - Last Pale Light In The West tab

Ben Nichols, lead singer of Lucero, released a solo album The Last Pale Light in the West
http://www.luceromusic.com/site/index.php

Intro + Verse

   Em
E|-------------------------------------------------|
B|-----0-----------0-----------0-----------0-------|
G|---------0-----------0-----------0-----------0---|
D|-----------2-----------2-----------2-----------2-|
A|-------------------------------------------------|
E|-0-----------0-----------0-----------0-----------|

   G
E|-------------------------------------------------|
B|-----0-----------0-----------0-----------0-------|
G|---------0-----------0-----------0-----------0---|
D|-----------0-----------0-----------0-----------0-|
A|-------------------------------------------------|
E|-3-----------3-----------3-----------3-----------|

1.
In my hands, I hold the ashes
In my veins, black pitch drums

2.
Dark clouds gather 'round me
Due northwest, the soul is bound

3.
And I ask for no redemption
In this cold and barron place

   C
E|-------------------------------------------------|
B|-----0-----------0-----------0-----------0-------|
G|---------0-----------0-----------0-----------0---|
D|-----------2-----------2-----------2-----------2-|
A|-3------------3----------3-----------3-----------|
E|-------------------------------------------------|

   Em
E|-------------------------------------------------|
B|-----0-----------0-----------0-----------0-------|
G|---------0-----------0-----------0-----------0---|
D|-----------2-----------2-----------2-----------2-|
A|-------------------------------------------------|
E|-0-----------0-----------0-----------0-----------|

   D
E|-------------------------------------------------|
B|-----3-----------3-----------3-----------3-------|
G|---------2-----------2-----------2-----------2---|
D|-0---------0-0---------0-0---------0-0---------0-|
A|-------------------------------------------------|
E|-------------------------------------------------|

   C
E|-------------------------------------------------|
B|-----0-----------0-----------0-----------0-------|
G|---------0-----------0-----------0-----------0---|
D|-----------2-----------2-----------2-----------2-|
A|-3------------3----------3-----------3-----------|
E|-------------------------------------------------|

1.
In my chest, if I can catch this
In my way, the setting sun

2.
And I will go on ahead, free
There's a light yet to be found

3.
Still I see the faint reflection
And so by it, I got my way

Chorus

   Em                      D           C
E|-------------------------------------------------|
B|-----0-----------0-----------3-----------0-------|
G|---------0-----------0-----------2-----------0---|
D|-----------2-----------2-0---------0-----------2-|
A|-------------------------------------3-----------|
E|-0-----------0-----------------------------------|

   G
E|-------------------------------------------------|
B|-----0-----------0-----------0-----------0-------|
G|---------0-----------0-----------0-----------0---|
D|-----------0-----------0-----------0-----------0-|
A|-------------------------------------------------|
E|-3-----------3-----------3-----------3-----------|

The last pale light in the west
The last pale light in the west
Tap to rate this tab
# A B C D E F G H I J K L M N O P Q R S T U V W X Y Z