Ben Ottewell - Shapes And Shadows tab

Artist: Ben Ottewell
Song: Shapes and Shadows
Album: Shapes and Shadows

http://itunes.apple.com/us/album/shapes-shadows/id417859787

Tuning: standard

Chords

   G6   Cmaj7   C#m7?   Bb#11   C?   Am   C/G   G7   Aadd9    Cmaj7(2)
E:-0----0--------0-------0------0-----0----0----3-----0---------0----------|
B:-0----0--------0-------3------5-----1----1----1-----0---------0----------|
G:-4----5--------4-------0------0-----2----0----0-----6---------9----------|
D:-5----5--------5-------3------5-----2----2----0-----7---------10---------|
A:-5----3--------4-------1------3-----0----3----2-----7---------10---------|
E:-3---------------------------------------3----3-----5---------8----------|


Intro - just the G6 picking below

Verse - the picking may not be absolutely exact, but I'm pretty sure the shapes are 
right so you can muck around.

   G6
E:---------------------------------------------------------------------------|
B:-----------0------------------0-----------------0------------------0-------|
G:----4---------4---4----4--------4---4----4--------4---4-----4--------4---4-|
D:------5---------5--------5--------5--------5--------5---------5--------5---|
A:--------5------------------5-----------------5------------------5----------|
E:--3------------------3-----------------3-----------------3-----------------|


   Cmaj7                              C#m7?
E:------------------------------------------------------------------------|
B:---------0----------------0------------------0-----------------0--------|
G:---5-------5---5----5-------5---5------4-------4---4----4--------4---4--|
D:-----5-------5--------5-------5----------5-------5--------5--------5----|
A:-3-----3----------3-----3------------4-----4----------4-----4-----------|
E:------------------------------------------------------------------------|


Pre Chorus

  smooth those lines away....
   Bb#11            C?               G6
E:------------------------------------------------------------------------|
B:-------3-------3--------5-------5-----------0---------------0-----------|
G:-----0---0---0--------0---0---0------4--------4---4---4-------4---4-----|
D:---3-------3--------5-------5----------5--------5-------5-------5-------|
A:-1----------------3----------------------5----------------5-------------|
E:-----------------------------------3----------------3-------------------|

  smooth those lines away....
   Bb#11            C?               G6
E:------------------------------------------------------------------------|
B:-------3-------3--------5-------5-----------0---------------0-----------|
G:-----0---0---0--------0---0---0------4--------4---4---4-------4---4-----|
D:---3-------3--------5-------5----------5--------5-------5-------5-------|
A:-1----------------3----------------------5----------------5-------------|
E:-----------------------------------3----------------3-------------------|

First verse repeat the above

Chrous (strummed chords)

Am             C/G
She's so...... fine

G7 (take off and hammer on the second string every now and then)


Bridge bit - just the chords

G6        Aadd9    Cmaj7(2)


That's all the bits (except for the lead), pretty easy to work out what goes where.

Corrections most welcome - nick_cam1980@yahoo.com
Tap to rate this tab
 
# A B C D E F G H I J K L M N O P Q R S T U V W X Y Z