Song name
# A B C D E F G H I J K L M N O P Q R S T U V W X Y Z

Ben Rector - I Like You tab

Parts of this may not be exactly right but it sounds pretty good. Just listen to
the song a few times and you'll get the timing down.

Capo 3

Intro/Chorus
---0----------------0-------------------------------------|
------1-----0--3--1-----1--1---1--1---0--0---1---1---1--1-|
----------------------------------------------------------|
----------------------------------------------------------|
-3--------------0----------------------------------3------|
--------3-------------1------3------3------1---3----------|

Verse 1(* means pluck muted string))
There's no need to complicate it dress it up or overstate it without too much hesitation 
here's the way I feel.
--------------------------------------------------------------|
---0*-0*-0*-0*---0*-0*---0------0---0---0----0---0--0---------|
--------------------------------------------------------------|
-----------------------------0-----------------0--------0-2-0-|
-3-------------3--------------0-----------------------3-------|
-----------------------3---4-------0---1---0------3-----------|

Chorus
I like you, I like you, even when I don't try to. Yes I do, that's the truth, I like you.

Verse 2 (same pattern as verse one)
Seven years is a long, long while, but somehow you still make me smile. I'd say almost 
most the time here's the way I feel.

Chorus

repeat chorus just playing

There are way too many love songs. And I think they've got it all wrong.
----------0-----------------------------0-3-0-0-----|
----------1-------------0-1-3----------------3-0~1--|
----------2---------------------------------------2-|
----------3-----------------------------------------|
----------------------------------------------------|
----------------------------------------------------|

Cause life is not the mountain tops, it's the walkin in between, I like you walkin next to me
---------------------------0----------------0------------0-----1-0----|
---------------------------1------------------1---1--1-----1------3-1-|
--------2-------0----------2------------------------------------------|
-----------------------3---3--------------3-----0------2--------------|
----------------------------------------------------------------------|
----------------------------------------------------------------------|

play chorus 3 more times through to end of song and end by strumming a C.
Tap to rate this tab
# A B C D E F G H I J K L M N O P Q R S T U V W X Y Z