Song name
# A B C D E F G H I J K L M N O P Q R S T U V W X Y Z

Ben Taylor - Wicked Way tab

Tuning: Capo on 3rd fret 

This is a varriation on the original but it sounds way better.


Intro
e|---------------------------------------------0---------------0----|
B|-----3---5---3-------3---4---3-------0---------------0------------|
G|---0---0---0---0---0---0---0---0---0---0---0---0---0---0---0---0--|
D|-5---------------4---------------2-------2-------4-------4--------|
A|------------------------------------------------------------------|
E|------------------------------------------------------------------|


Verse
e|---------------------------------------------0---------------0----|
B|-----3---5---3-------3---4---3-------0---------------0------------|
G|---0---0---0---0---0---0---0---0---0---0---0---0---0---0---0---0--|
D|-5---------------4---------------2-------2-------4-------4--------|
A|------------------------------------------------------------------|
E|------------------------------------------------------------------|

e|---------------------------------------------------------0--------|
B|-----1-------1-------1-------1-------1-------1-------3-------3----|
G|---0---0---0---0---0---0---0---0---0---0---0---0---2---2---2---0--|
D|-------------------------------------------------0----------------|
A|-3-------3-------2-------2-------0-------0------------------------|
E|------------------------------------------------------------------|

Chorus
e|------------------------------------------------------------------|
B|-----1-------1-------1-------1-------1-------1-------1-------1----|
G|---0---0---0---0---0---0---0---0---0---0---0---0---0---0---0---0--|
D|------------------------------------------------------------------|
A|-3-------3-------2-------2-------0-------0-------2-------2--------|
E|------------------------------------------------------------------|

e|----------------------------------------------|
B|-----1-------1-------1-------1-----1-------3--|
G|---0---0---0---0---0---0---0---0---0-------2--|
D|-------------------------------------------0--|
A|-3-------3-------2-------2---------0----------|
E|----------------------------------------------|

e|----------------------------------|
B|-----3-------3-------3------------|
G|---0---0---0---0---0---0---0------|
D|-5-------5-------5-------4---4-0--|
A|----------------------------------|
E|----------------------------------|
Tap to rate this tab
 
# A B C D E F G H I J K L M N O P Q R S T U V W X Y Z