Song name
# A B C D E F G H I J K L M N O P Q R S T U V W X Y Z

Ben Taylor - Wicked Way tab

-----------------------------------------------------------------------------
                        Wicked Way Ė Ben Taylor
-----------------------------------------------------------------------------
Tabbed by: Bill Goers
Written by: Benjamin Taylor

As played on the album: The Legend of Kung Folk, Pt.1: The Killing Bite

Tuning: EADGBe

Tuning: Capo on 3rd fret 

The 1st string should ring throughout the song

Intro

e|---------0---------------0---------------0---------------0--------|
B|-----3-------0-------3-------0-------0-------0-------3-------0----|
G|---0---0---0---0---0---0---0---0---0---0---0---0---0---0---0---0--|
D|-5---------------4---------------2---------------4----------------|
A|------------------------------------------------------------------|
E|------------------------------------------------------------------|

Verse

e|---------0---------------0---------------0---------------0--------|
B|-----3-------0-------3-------0-------0-------0-------3-------0----|
G|---0---0---0---0---0---0---0---0---0---0---0---0---0---0---0---0--|
D|-5---------------4---------------2---------------4----------------|
A|------------------------------------------------------------------|
E|------------------------------------------------------------------|

e|---------0---------------0---------------0------------------------|
B|-----1-------1-------1-------1-------1-------1-------3-------3----|
G|---0---0---0---0---0---0---0---0---0---0---0---0---2---2---2------|
D|-------------------------------------------------0-------0--------|
A|-3---------------2---------------0--------------------------------|
E|------------------------------------------------------------------|

e|---------0---------------0---------------0---------------0--------|
B|-----3-------0-------3-------0-------0-------0-------3-------0----|
G|---0---0---0---0---0---0---0---0---0---0---0---0---0---0---0---0--|
D|-5---------------4---------------2---------------4----------------|
A|------------------------------------------------------------------|
E|------------------------------------------------------------------|

e|---------0---------------0---------------0------------------------|
B|-----1-------1-------1-------1-------1-------1-----3--------------|
G|---0---0---0---0---0---0---0---0---0---0---0---0---2--------------|
D|---------------------------------------------------0--------------|
A|-3---------------2---------------0--------------------------------|
E|------------------------------------------------------------------|

Chorus

e|------------------------------------------------------------------|
B|-----3-------3-------3---------------1-------1-------1-------1----|
G|---0---0---0---0---0---0---0---0---0---0---0---0---0---0---0---0--|
D|------------------------------------------------------------------|
A|-------------------------0---2---3-------3-------2-------2--------|
E|-3-------3-------3------------------------------------------------|

e|------------------------------------------------------------------|
B|-----1-------1-------1-------1-------1-------1-------1-------1----|
G|---0---0---0---0---0---0---0---0---0---0---0---0---0---0---0---0--|
D|------------------------------------------------------------------|
A|-0-------0-------2-------2-------3-------3-------2-------2--------|
E|------------------------------------------------------------------|

e|-----------------3---------------3------------|
B|-3---3-------3-------3-------3-------3--------|
G|-0---2-----0---0---0---0---0---0---0---0------|
D|-----0---5---------------5--------------------|
A|-0--------------------------------------------|
E|----------------------------------------------|

Outro

e|---------3---------------------0---------3---------------------2--|
B|-----3-------3-------3-------3-------3-------3-------3-------3----|
G|---0---0---0---0---0---0---2-------0---0---0---0---0---0---2------|
D|-5---------------5-------0-------5---------------5-------0--------|
A|------------------------------------------------------------------|
E|------------------------------------------------------------------|

Lyrics

Verse 1

Well, I just want to take you out and get you drunk 
So I can have my wicked way with you 
Iím just being honest 'cause I know the other guys 
Are thinking just the same way too 
And Iím not gonna lie and say 
That I will take you out to dance, there's just no chance 
'Cause I don't even like the same music you do 
I just want to have my wicked way with you 

Chorus

Girl, don't you fight it 
Cause I know youíre gonna like it 
Show me some skin, I might bite it 
I want to have my wicked way with you 

Verses 2 & 3

I'm not gonna come over and meet your Mom and Dad 
They know that I was bad 
I don't want to meet your friends 
Or just pretend I like you 
And I don't want to talk about what happened 
On your favorite TV show 
I just wanna get you close enough 
So I can take off all your clothes 
And I don't want to make you cry or break your heart 
Girl, we don't have the time 
I'm just thinking of three hours or more 
So I can have my wicked way with you 

Chorus

No, don't you fight it 
Donít knock it till youíve tried it 
Show me some skin, I might bite it 
I want to have my wicked way with you

Outro

My wicked way with you
My wicked way with you
Tap to rate this tab
 
# A B C D E F G H I J K L M N O P Q R S T U V W X Y Z