Song name
# A B C D E F G H I J K L M N O P Q R S T U V W X Y Z

Ben Taylor - Surround Me tab

The entire song consists of arpeggios, Ive added the chord names in quotes so you know 
whats what. I find its easier to finger the whole chords and then just pluck the ones you need.
This isn't an exact tab but its pretty close.

Main Riff

   "Love surround...

  "B"          "G#"  "A"  "F#"          "A"   "A"
|-----------------------------------------------------|
|--4---5-4---------------------5-4--------------------|
|----4--------4-------------------------4-------------|
|-----------4-------6-----7-----------4-------7-----7-|
|--2---4-2-------6-----7-----4-4-2---------7-----7----|
|--------------4-----5-----2-------------5-----5------|

Repeat this twice. On the second time around repeat the last arpeggio (the "A") 4 times 
instead of two(this leads into the chorus).

Chorus

  "Floating....

  "E"                 "C#m"        "F#"
|-----------------------------------------2---------------------------|
|--------9h10p9--------------5--------------2-------------------------|
|------9-9---------9-------6-6---6------------4p3---------------------|
|----9--------------9---6---------6-----4--------------------2h4-4\6--|
|--7------------------4---------------4-----------------2h4-----------|
|-----------------------------------2---------------------------------|
  "C#m"       "B"
|--------4-----------2-----|
|--------5-----------4-----|
|------6-6-6-------4-4-4---|
|----6-------6---4-------4-|
|--4-----------2-----------|
|--------------------------|

   "Surround me.........
   "F#"  "G#"  "A"         "F#"  "G#"  "A"         "F#"  "G#"  "A"
|----------------------------------------------------------------------|
|----------------------------------------------------------------------|
|--------------------6-----------------------6-----------------------6-|
|------4-----6-----7-----------4-----6-----7-----------4-----6-----7---|
|----4-----6-----7-----------4-----6-----7-----------4-----6-----7-----|
|--2-----4-----5-------5-4-2-----4-----5-------5-4-2-----4-----5-------|

Transition

  "D"    "E"
|---------------------|
|--7-----9-----9\10---|
|----7-----9----------|
|------7-----9--------|
|--5-----7-----7\9----|
|---------------------|

Love surround me with all your reach
Now while weíre here alone
Now our bodies are ocean and beach
Blessings of waves and stones

Floating a lonely sound
You found me
And now that the tide is finally down
Surround me
Surround me
Surround me

And love move for me
Flow beneath the sky
Shadows and silver cross your face
Pools of moon at night

Weak from standing on sandy ground
You found me
And now that Iíve finally fallen down
Surround me
Surround me
Surround me

Love surround me while you can
Until these waves grow cold
Iíve gone TOO DEEP, I cannot stand
I burned before I froze

Running to save my life
Believing you
Now in the heat of this dreadful dry
Iím needing you
Surround me
Surround me
Surround me
Tap to rate this tab
# A B C D E F G H I J K L M N O P Q R S T U V W X Y Z