Song name
# A B C D E F G H I J K L M N O P Q R S T U V W X Y Z

Ben Taylor - Digest tab

-----------------------------------------------------------------
DIGEST - Benjamin Taylor (Ben Taylor)
-----------------------------------------------------------------

Tabbed by: Rhyl

Tuning: Standard

| /  slide up
| \  slide down
| h  hammer-on
| p  pull-off

This is not how Ben plays it, but I think I've got most of the main changes.I figured
this tab out after playing the chords along to the song and working out the various,
pull-offs and slides that link the chords. Sorry for not separating the bars out, but if
you listen to the track and read the tab simultaneously, you can (I hope) pretty much
get the
tempo. Call me lazy, but I didn't tab out all the lyrics, but i have put a guide to
where the lines should coincide with the chords. I hope they are clear!

The intro is finger picked and I tend to carry that into the verses, however just
strumming the chords to the right rhythm sounds fine and makes it easier to sing over! It's
also helpful that the intro is also exactly the same for the chorus.

I welcome ANY suggestions; this version absolutely works for me, but if this tab can
sound better PLEASE add your suggestions in the comments. I am a novice and this is only my
second tab. Thanks for checking it out.


Intro

    Am               E             C
e|--0------------------------------------------------------------|
B|--------1p0-----------------0h1-----------1/3--------3\1-------|
G|--2-----2------2---------1-------------0-------------0---------|
D|-----2-------2--------2-------------2-------------4------------|
A|--0----------------2-------------3-------------5---------------|
E|---------------------------------------------------------------|

    F               C           G
e|------------------------------------3--------------------------|
B|--------1---------------1p0---------3---------3-----------3----|
G|--------2p0----0--------0-------0----------0-----------0-------|
D|-----3-------3-------2--------0---------0-----------0----------|
A|--3---------------3------------------------------2-------------|
E|------------------------------------3--------------------------|

    Am              E            C
e|----------------------0----------------------------------------|
B|--1-----1p0--------------0-----0h1-----------1/3--------3\1----|
G|--2-----2------2------------1-------------0-------------0------|
D|-----2-------2-------------------------2-------------4---------|
A|--0----------------2----------------3-------------5------------|
E|---------------------------------------------------------------|

    F               C           G     (let ring)
e|------------------------------------3--------------------------|
B|--------1---------------1p0---------3--------------------------|
G|--------2p0----0--------0-------0------------------------------|
D|-----3-------3-------2--------0--------------------------------|
A|--3---------------3--------------------------------------------|
E|------------------------------------3--------------------------|

                                             "When it gets me de-"



Verse (REPEAT TO BRIDGE)

    Am              F                C               G
e|-------(0)-----------------------------------------------------|
B|--------1---------------1---------------1p0--------------3-----|
G|--------2p0----1--------2p0----0--------0------0---------0---0-|
D|-----2-------0-------3-------3-------2-------2--------0----0---|
A|--0---------------3---------------3----------------------------|
E|---------------------------------------------------3-----------|

   "-pressed I find..."

   "express my love..."

   "rest of our lives..."

   "exhale my prayer..."

   "mind I imagine ..."


Bridge

    Am          D9          Am          D9
e|--------------------2-----------------------2------|
B|--------1-----------1-----------1-----------1------|
G|--------2--------2--------------2--------2---------|
D|-----2-----2--0--------0-----2-----2--0--------0---|
A|--0-----------------------0------------------------|
E|---------------------------------------------------|

                "Lately I've been breaking..."

    Am          D9          F               G
e|--------------------2---------------------------3-----|
B|--------1-----------1-----------1---------------3-----|
G|--------2--------2--------------2p0----0-------------0|
D|-----2-----2--0--------0-----3-------3-------0-----0--|
A|--0-----------------------3---------------------------|
E|------------------------------------------3-----------|

    "I'm trying my best..."



Pre-Chorus (REPEAT TO CHORUS)
    Am              F                C               G
e|-------(0)-----------------------------------------------------|
B|--------1---------------1---------------1p0--------------3-----|
G|--------2p0----1--------2p0----0--------0------0---------0---0-|
D|-----2-------0-------3-------3-------2-------2--------0----0---|
A|--0---------------3---------------3----------------------------|
E|---------------------------------------------------3-----------|

 "..forced to digest this..."

 "..laugh as if there's..."

 "..I know life goes on..."

 "..gone."

                                                    "since you've been..."

Chorus

    Am               E             C
e|--0------------------------------------------------------------|
B|--------1p0-----------------0h1-----------1/3--------3\1-------|
G|--2-----2------2---------1-------------0-------------0---------|
D|-----2-------2--------2-------------2-------------4------------|
A|--0----------------2-------------3-------------5---------------|
E|---------------------------------------------------------------|

   "gooooo..."

    F               C           G
e|------------------------------------3--------------------------|
B|--------1---------------1p0---------3---------3-----------3----|
G|--------2p0----0--------0-------0----------0-----------0-------|
D|-----3-------3-------2--------0---------0-----------0----------|
A|--3---------------3------------------------------2-------------|
E|------------------------------------3--------------------------|

                             ooone..."             "since you've been..."

    Am              E            C
e|----------------------0----------------------------------------|
B|--1-----1p0--------------0-----0h1-----------1/3--------3\1----|
G|--2-----2------2------------1-------------0-------------0------|
D|-----2-------2-------------------------2-------------4---------|
A|--0----------------2----------------3-------------5------------|
E|---------------------------------------------------------------|

   "gooooo..."

    F               C           G     (let ring)
e|------------------------------------3--------------------------|
B|--------1---------------1p0---------3--------------------------|
G|--------2p0----0--------0-------0------------------------------|
D|-----3-------3-------2--------0--------------------------------|
A|--3---------------3--------------------------------------------|
E|------------------------------------3--------------------------|

                              "...ooone"


Verse (REPEAT TO BRIDGE)

    Am              F                C               G
e|-------(0)-----------------------------------------------------|
B|--------1---------------1---------------1p0--------------3-----|
G|--------2p0----1--------2p0----0--------0------0---------0---0-|
D|-----2-------0-------3-------3-------2-------2--------0----0---|
A|--0---------------3---------------3----------------------------|
E|---------------------------------------------------3-----------|

  "Another run around the sun..."

  "What have we dreamed, who..."

  "I never could have believed..."

  "Never cared to imagine..."




Bridge

    Am          D9          Am          D9
e|--------------------2-----------------------2---------|
B|--------1-----------1-----------1-----------1---------|
G|--------2--------2--------------2--------2------------|
D|-----2-----2--0--------0-----2-----2--0--------0------|
A|--0-----------------------0---------------------------|
E|------------------------------------------------------|

                "Lately I've been breaking..."

    Am          D9          F               G
e|--------------------2---------------------------3-----|
B|--------1-----------1-----------1---------------3-----|
G|--------2--------2--------------2p0----0-------------0|
D|-----2-----2--0--------0-----3-------3-------0-----0--|
A|--0-----------------------3---------------------------|
E|------------------------------------------3-----------|

    "I'm trying my best..."



Pre-Chorus (REPEAT TO CHORUS)
    Am              F                C               G
e|-------(0)-----------------------------------------------------|
B|--------1---------------1---------------1p0--------------3-----|
G|--------2p0----1--------2p0----0--------0------0---------0---0-|
D|-----2-------0-------3-------3-------2-------2--------0----0---|
A|--0---------------3---------------3----------------------------|
E|---------------------------------------------------3-----------|

 "..forced to digest this..."

 "..laugh as if there's..."

 "..I know life goes on..."

 "..gone."

                                                    "since you've been..."

Chorus

    Am               E             C
e|--0------------------------------------------------------------|
B|--------1p0-----------------0h1-----------1/3--------3\1-------|
G|--2-----2------2---------1-------------0-------------0---------|
D|-----2-------2--------2-------------2-------------4------------|
A|--0----------------2-------------3-------------5---------------|
E|---------------------------------------------------------------|

   "gooooo..."

    F               C           G
e|------------------------------------3--------------------------|
B|--------1---------------1p0---------3---------3-----------3----|
G|--------2p0----0--------0-------0----------0-----------0-------|
D|-----3-------3-------2--------0---------0-----------0----------|
A|--3---------------3------------------------------2-------------|
E|------------------------------------3--------------------------|

                             ooone..."             "since you've been..."

    Am              E            C
e|----------------------0----------------------------------------|
B|--1-----1p0--------------0-----0h1-----------1/3--------3\1----|
G|--2-----2------2------------1-------------0-------------0------|
D|-----2-------2-------------------------2-------------4---------|
A|--0----------------2----------------3-------------5------------|
E|---------------------------------------------------------------|

   "gooooo..."

    F               C           G     (let ring)
e|------------------------------------3--------------------------|
B|--------1---------------1p0---------3--------------------------|
G|--------2p0----0--------0-------0------------------------------|
D|-----3-------3-------2--------0--------------------------------|
A|--3---------------3--------------------------------------------|
E|------------------------------------3--------------------------|

                              "...ooone"



Verse (REPEAT TO BAR BELOW)

    Am              F                C               G
e|-------(0)-----------------------------------------------------|
B|--------1---------------1---------------1p0--------------3-----|
G|--------2p0----1--------2p0----0--------0------0---------0---0-|
D|-----2-------0-------3-------3-------2-------2--------0----0---|
A|--0---------------3---------------3----------------------------|
E|---------------------------------------------------3-----------|

  "Now, times change and the game..."

  "wrong, life rises now here we are..."

  "Stronger than habit or fantasy..."

  "God damn it, I understand it..."

  "On this stage in these lights..."

  "ever have asked............................... but without you"

      Am (strum chord then immediately palm mute)
e|----0----------------------------------------------------------|
B|----1----------------------------------------------------------|
G|----2----------------------------------------------------------|
D|----2----------------------------------------------------------|
A|----0----------------------------------------------------------|
E|----0----------------------------------------------------------|

  "the best is yet to pass and now this song is about you."

Pre-Chorus (REPEAT TO CHORUS)
    Am              F                C               G
e|-------(0)-----------------------------------------------------|
B|--------1---------------1---------------1p0--------------3-----|
G|--------2p0----1--------2p0----0--------0------0---------0---0-|
D|-----2-------0-------3-------3-------2-------2--------0----0---|
A|--0---------------3---------------3----------------------------|
E|---------------------------------------------------3-----------|

 "..forced to digest this..."

 "..laugh as if there's..."

 "..I know life goes on..."

 "..gone."

                                                    "since you've been..."

Chorus

    Am               E             C
e|--0------------------------------------------------------------|
B|--------1p0-----------------0h1-----------1/3--------3\1-------|
G|--2-----2------2---------1-------------0-------------0---------|
D|-----2-------2--------2-------------2-------------4------------|
A|--0----------------2-------------3-------------5---------------|
E|---------------------------------------------------------------|

   "gooooo..."

    F               C           G
e|------------------------------------3--------------------------|
B|--------1---------------1p0---------3---------3-----------3----|
G|--------2p0----0--------0-------0----------0-----------0-------|
D|-----3-------3-------2--------0---------0-----------0----------|
A|--3---------------3------------------------------2-------------|
E|------------------------------------3--------------------------|

                             ooone..."             "since you've been..."

    Am              E            C
e|----------------------0----------------------------------------|
B|--1-----1p0--------------0-----0h1-----------1/3--------3\1----|
G|--2-----2------2------------1-------------0-------------0------|
D|-----2-------2-------------------------2-------------4---------|
A|--0----------------2----------------3-------------5------------|
E|---------------------------------------------------------------|

   "gooooo..."

    F               C           G     (let ring)
e|------------------------------------3--------------------------|
B|--------1---------------1p0---------3--------------------------|
G|--------2p0----0--------0-------0------------------------------|
D|-----3-------3-------2--------0--------------------------------|
A|--3---------------3--------------------------------------------|
E|------------------------------------3--------------------------|

                              "...ooone"


Notes:

- TIP! In the intro, when you slide UP 1/3, you can simply move that whole first full C
shape up 2 frets.
- Use the chords as a guide and find your own finger picking style. Mix up the strings a
bit, but bear in mind the next chord.
Tap to rate this tab
# A B C D E F G H I J K L M N O P Q R S T U V W X Y Z