Song name
# A B C D E F G H I J K L M N O P Q R S T U V W X Y Z

Benea Reach - New Waters tab

"New Waters" by Benea Reach

Tabbed by Alec

Drop A# Tuning: A# F A# D# G# C

                                            Those calm...
E|----------------------------------------------|
B|----------------------------------------------|
G|----------------------------------------------|
D|--0h2--2--0--0--0--0--0--0---------0h2--2--0--|
A|--0h2--2--0--0--0--0--0--0--5h8p5--0h2--2--0--|
E|--0h2--2--0--0--0--0--0--0---------0h2--2--0--|

Hollow waves...
E|---------------------------|
B|---------------------------|
G|---------------------------|
D|--0h2--2-------------------| x3
A|--0h2--2------------5h8p5--|
E|--0h2--2--0--2h3p0---------|

E|---------------------------|
B|---------------------------|
G|---------------------------|
D|--0h2--2-------------------| x2
A|--0h2--2-------------------|
E|--0h2--2--0--2h3p0--5h8p5--|

E|---------------------------|
B|---------------------------|
G|---------------------------|
D|--0h2--2-------------------| x3
A|--0h2--2------------5h8p5--|
E|--0h2--2--0--2h3p0---------|

  You and I...         There is nothing...
E|----------------------------------------------------------------------------------------------|
B|----------------------------------------------------------------------------------------------|
G|----------------------------------------2--2--2-----------------------------------------------|
D|--7-7--4-4--7-7--4-4--0--0--0--0--0--0--2--2--2--0--0--0--2--2--4--4--4--4--4--4--4--4--4--4--|
A|--7-7--4-4--7-7--4-4--0--0--0--0--0--0--0--0--0--0--0--0--2--2--4--4--4--4--4--4--4--4--4--4--|
E|--7-7--4-4--7-7--4-4--0--0--0--0--0--0-----------0--0--0--2--2--4--4--4--4--4--4--4--4--4--4--|

Rain or shine...
E|--------------------------|
B|--------------------------|
G|--------------------------|
D|--7--7--4--4--0--0--0--0--|
A|--7--7--4--4--0--0--0--0--|
E|--7--7--4--4--0--0--0--0--|

Like every sail...
E|---------------------------|
B|---------------------------|
G|---------------------------|
D|--0h2--2-------------------| x3
A|--0h2--2------------5h8p5--|
E|--0h2--2--0--2h3p0---------|

E|---------------------------|
B|---------------------------|
G|---------------------------|
D|--0h2--2-------------------| x2
A|--0h2--2-------------------|
E|--0h2--2--0--2h3p0--5h8p5--|

E|---------------------------|
B|---------------------------|
G|---------------------------|
D|--0h2--2-------------------| x3
A|--0h2--2------------5h8p5--|
E|--0h2--2--0--2h3p0---------|

This next bit is a complicated one. Listen to the song over and over until you can get 
You guys are smart; I'm sure you'll figure it out.

E|-----
B|-----
G|-----
D|--0-- x53 (I think)
A|--0--
E|--0--

You and I...
E|--------------------------------------------|
B|--------------------------------------------|
G|--------------------------------------------|
D|--7--7--7--7--6--9--6--4--4--4--4--2--4--7--|
A|--7--7--7--7--6--9--6--4--4--4--4--2--4--7--|
E|--7--7--7--7--6--9--6--4--4--4--4--2--4--7--|

All the lies...
E|------------------------------------------|
B|------------------------------------------|
G|------------------------------------------|
D|--7--7--7--7--6--9--6--4--4--4--4--2-4-2--|
A|--7--7--7--7--6--9--6--4--4--4--4--2-4-2--|
E|--7--7--7--7--6--9--6--4--4--4--4--2-4-2--|

There is nothing...
E|--------------------------------------------------------------------------|
B|--------------------------------------------------------------------------|
G|--------------------2--2--2-----------------------------------------------|
D|--0--0--0--0--0--0--2--2--2--0--0--0--2--2--4--4--4--4--4--4--4--4--4--4--|
A|--0--0--0--0--0--0--0--0--0--0--0--0--2--2--4--4--4--4--4--4--4--4--4--4--|
E|--0--0--0--0--0--0-----------0--0--0--2--2--4--4--4--4--4--4--4--4--4--4--|

Rain or shine...
E|---------------------------------------------------------------------|
B|---------------------------------------------------------------------|
G|---------------------------------------------------------------------|
D|--7--7--7--7--6--9--6--4--4--0--0--0--0--0--0h2--2-------------------|
A|--7--7--7--7--6--9--6--4--4--0--0--0--0--0--0h2--2------------5h8p5--|
E|--7--7--7--7--6--9--6--4--4--0--0--0--0--0--0h2--2--0--2h3p0---------|

You and I...           You are everything...
E|----------------------------------------------------------------------------------------------|
B|----------------------------------------------------------------------------------------------|
G|----------------------------------------2--2--2-----------------------------------------------|
D|--7-7--4-4--7-7--4-4--0--0--0--0--0--0--2--2--2--0--0--0--2--2--4--4--4--4--4--4--4--4--4--4--|
A|--7-7--4-4--7-7--4-4--0--0--0--0--0--0--0--0--0--0--0--0--2--2--4--4--4--4--4--4--4--4--4--4--|
E|--7-7--4-4--7-7--4-4--0--0--0--0--0--0-----------0--0--0--2--2--4--4--4--4--4--4--4--4--4--4--|

Rain or shine...
E|--------------------------------------------|
B|--------------------------------------------|
G|--------------------------------------------|
D|--7--7--7--7--6--9--6--4--4--0--0--0--0--0--|
A|--7--7--7--7--6--9--6--4--4--0--0--0--0--0--|
E|--7--7--7--7--6--9--6--4--4--0--0--0--0--0--|
Tap to rate this tab
# A B C D E F G H I J K L M N O P Q R S T U V W X Y Z