Song name
# A B C D E F G H I J K L M N O P Q R S T U V W X Y Z

Beneath The Massacre - No Future tab

-------------------------------------------------------------------------------
                             "No Future" - Beneath The Massacre
-------------------------------------------------------------------------------
Tabbed by: Eric (WashburnWS4)
Email:

Tuning:  A E A D G B E


************************************
\ - slide down the neck
************************************

INTRO
e|---------------------------------------------------------------------------|
B|---------------------------------------------------------------------------|
G|---------------------------------------------------------------------------|
D|---------------------------------------------------------------------------|
A|--2--------------------------------------------2---------------------------|
E|--2--------------------------------------------2---------------------------|
A|--2--------------------------------------------2---------------------------|

e|---------------------------------------------------------------------------|
B|---------------------------------------------------------------------------|
G|---------------------------------------------------------------------------|
D|---------------------------------------------------------------------------|
A|--2--------------------------------------------2---------------------------|
E|--2--------------------------------------------2---------------------------|
A|--2--------------------------------------------2---------------------------|


VERSE 
e|---------------------------------------------------------------------------|
B|---------------------------------------------------------------------------|
G|----LIGHTLY PALM MUTE------------------------------------------------------|
D|---------------------------------------------------------------------------|
A|--\---4--3--2--3--4--3--2----4-3-2---3--4--3--2----------------------------|
E|--\---4--3--2--3--4--3--2----4-3-2---3--4--3--2----------------------------|
A|--\---4--3--2--3--4--3--2----4-3-2---3--4--3--2----------------------------|

e|---------------------------------------------------------------------------|
B|---------------------------------------------------------------------------|
G|----LIGHTLY PALM MUTE------------------------------------------------------|
D|---------------------------------------------------------------------------|
A|------4--3--2--3--4--3--2----4-3-2---2-------------------------------------|
E|------4--3--2--3--4--3--2----4-3-2---2-------------------------------------|
A|------4--3--2--3--4--3--2----4-3-2---2-------------------------------------|

e|---------------------------------------------------------------------------|
B|---------------------------------------------------------------------------|
G|----LIGHTLY PALM MUTE------------------------------------------------------|
D|---------------------------------------------------------------------------|
A|------4--3--2--3--4--3--2----4-3-2---3--4--3--2----------------------------|
E|------4--3--2--3--4--3--2----4-3-2---3--4--3--2----------------------------|
A|------4--3--2--3--4--3--2----4-3-2---3--4--3--2----------------------------|

e|---------------------------------------------------------------------------|
B|---------------------------------------------------------------------------|
G|----LIGHTLY PALM MUTE------------------------------------------------------|
D|---------------------------------------------------------------------------|
A|------4--3--2--3--4--3--2----4-3-2---\-------------------------------------|
E|------4--3--2--3--4--3--2----4-3-2---\-------------------------------------|
A|------4--3--2--3--4--3--2----4-3-2---\-------------------------------------|


VERSE 2
e|---------------------------------------------------------------------------|
B|---------------------------------------------------------------------------|
G|----LIGHTLY PALM MUTE------------------------------------------------------|
D|---------------------------------------------------------------------------|
A|------3--2--1--2--3--2--1----3-2-1---2--3--2--1----------------------------|
E|------3--2--1--2--3--2--1----3-2-1---2--3--2--1----------------------------|
A|------3--2--1--2--3--2--1----3-2-1---2--3--2--1----------------------------|

e|---------------------------------------------------------------------------|
B|---------------------------------------------------------------------------|
G|----LIGHTLY PALM MUTE------------------------------------------------------|
D|---------------------------------------------------------------------------|
A|------3--2--1--2--3--2--1----3-2-1---1-------------------------------------|
E|------3--2--1--2--3--2--1----3-2-1---1-------------------------------------|
A|------3--2--1--2--3--2--1----3-2-1---1-------------------------------------|

e|---------------------------------------------------------------------------|
B|---------------------------------------------------------------------------|
G|----LIGHTLY PALM MUTE------------------------------------------------------|
D|---------------------------------------------------------------------------|
A|------3--2--1--2--3--2--1----3-2-1---2--3--2--1----------------------------|
E|------3--2--1--2--3--2--1----3-2-1---2--3--2--1----------------------------|
A|------3--2--1--2--3--2--1----3-2-1---2--3--2--1----------------------------|

e|---------------------------------------------------------------------------|
B|---------------------------------------------------------------------------|
G|----LIGHTLY PALM MUTE------------------------------------------------------|
D|---------------------------------------------------------------------------|
A|------3--2--1--2--3--2--1----3-2-1---\-------------------------------------|
E|------3--2--1--2--3--2--1----3-2-1---\-------------------------------------|
A|------3--2--1--2--3--2--1----3-2-1---\-------------------------------------|
Tap to rate this tab
# A B C D E F G H I J K L M N O P Q R S T U V W X Y Z