Song name
# A B C D E F G H I J K L M N O P Q R S T U V W X Y Z

Beneath The Silence - The Five Points tab

4/4
  Gtr I
               TPTPTPTPTPTPTP             TPTPTPTP
  |-3-|  |-3-|               |-3-|  |-3-|
  E E E  E E E E E E E E E E E E E  E E E E E E E E  E
|---------------------------------------------------------|
|---------------------------------------------------------|
|---------------------------------------------------------|
|--------------3-2-3-7-3-2-3--------------3-2-3-7-9-10----|
|---------------------------------------------------------|
|-0-0-0--0-0-0---------------0-0-0--0-0-0-----------------|


  |-3-|  |-3-|
  E E E  E E E  E E  E  E  E E  E
|------------------------------------|
|------------------------------------|
|------------------------------------|
|--------------10-9-10-14-10-9-10----|
|------------------------------------|
|-7-7-7--7-7-7-----------------------|

http://www.myspace.com/beneaththesilencenz

Tap to rate this tab
# A B C D E F G H I J K L M N O P Q R S T U V W X Y Z