Song name
# A B C D E F G H I J K L M N O P Q R S T U V W X Y Z

Beneath The Silence - The Five Points tab

-------------------------------------------------------------------------------
			     the five points - beneath the silence
-------------------------------------------------------------------------------
Tabbed by:Blobsta


Tuning: drop d: d,a,d,g,b,e

e|------------------------------------------------------------------------------------|
B|------------------------------------------------------------------------------------|
G|------------------------------------------------------------------------------------|
D|------------------------------------------------------------------------------------|
A|------------------8-8-8-8-7-7-8-8-8-8-12-12-12-12-7-7-8-8-8-8-7-7-8-8---------------|
D|---0-0-0--0-0-0---------------------------------------------------------------------|

e|------------------------------------------------------------------------------------|
B|------------------------------------------------------------------------------------|
G|------------------------------------------------------------------------------------|
D|------------------------------------------------------------------------------------|
A|------------------8-8-8-8-7-7-8-8-8-8-12-12-12-12-7-7-8-8-8-8-10-10-10-10-----------|
D|---0-0-0--0-0-0---------------------------------------------------------------------|

e|------------------------------------------------------------------------------------|
B|------------------------------------------------------------------------------------|
G|------------------------------------------------------------------------------------|
D|------------------------------------------------------------------------------------|
A|-----------------10-10-10-10-9-9-10-10-10-10-14-14-14-14-9-9-10-10-10-10-9-9-10-10--|
D|---7-7-7--7-7-7---------------------------------------------------------------------|

e|------------------------------------------------------------------------------------|
B|------------------------------------------------------------------------------------|
G|------------------------------------------------------------------------------------|
D|------------------------------------------------------------------------------------|
A|-----------------10-10-10-10-9-9-10-10-10-10-14-14-14-14-9-9-10-10-10-7-7-3-3-------|
D|---7-7-7--7-7-7---------------------------------------------------------------------|

Tap to rate this tab
 
# A B C D E F G H I J K L M N O P Q R S T U V W X Y Z