Song name
# A B C D E F G H I J K L M N O P Q R S T U V W X Y Z

Beneath The Sky - Being In A Coma Is Hell Carried On tab

-------------------------------------------------------------------------------
			     Being In a Coma-Work in Progress
-------------------------------------------------------------------------------

*First Tab*

Tuning:Drop C (Guitar 1 and Guitar 2)


Intro + Verse 1 (Only Guitar 1)--Play Twice
D|---------------------------------------------------------------------------|
A|---------------------------------------------------------------------------|
F|---------------------------------------------------------------------------|
C|---------------------------------------------------------------------------|
G|------7------------7h8h7--7-------7------10-8-7h8h7------------------------|
C|5-5-5--5-5-5-5-5-5-------8--5-5-5--5-5-5-----------8-----------------------|
.....  ...........          .....  .....      

Verse 1 Contd.
                                             Ending 1     Ending 2
D|------------------------------------------|------------|-------------------|
A|------------------------------------------|------------|-------------------|
F|------------------------------------------|------------|-5-----------------|
C|------------------------------------------|------------|-5-6-4-1-----------|
G|-------5------------5h6h5--5-------5------|----5h6h5-8-|-3-6-4-1-----------|
C|-3-3-3--3-3-3-3-3-3------6---3-3-3---3-3-3|--5-6-------|---6-4-1-----------|





| /  slide up
| \  slide down
| h  hammer-on
| p  pull-off
| ~  vibrato
| +  harmonic
| x  Mute note
| PM... palm mute
===============================================================================
Tap to rate this tab
# A B C D E F G H I J K L M N O P Q R S T U V W X Y Z