Song name
# A B C D E F G H I J K L M N O P Q R S T U V W X Y Z

Beneath The Sky - Being In A Coma Is Hell Carried On tab

riff 1(gtr1)
|-----------------------------------------------------|
|-----------------------------------------------------|
|-----------------------------------------------------|
|--000-7-00000000-7h8p7------000-7-000-/10-8-7h8p7----|
|-----------------------7h10-----------------------8--|
|-----------------------------------------------------| (x2)

 gtr 2(second time)
|-----------------------------------------------------|
|-----------------------------------------------------|
|--------------------------------------/10-8-7h8p7----|
|--0~------------------------00--00----------------8--|
|--0~------------------------00--00-------------------|
|--0~------------------------00--00-------------------|

repeat riff 1 x2 (both)
then...

|--------------------------------------------------|
|--------------------------------------------------|
|--------------------------------------------------|
|------5----------5h6p5---------5---------5h6p5-8--|
|--333---33333333-------6h8-333---333-5-6----------|
|--------------------------------------------------|

|----------------------------------------------|
|----------------------------------------------|
|----------------------------------------------|
|------5----------5h6p5--------5-----10-6-5-3--|
|--333---33333333-------5h6-333--333-10-6-5-3--|
|------------------------------------10-6-5-3--|

 riff 2         
|---------------------------------------------------------------|
|---------------------------------------------------------------|
|---------------------------------------------------------------|
|----------7h8p7---------------7h8p7-----------7h8p7------------|
|--0000-00-------7h8-000000----------8-0000-00-------7h8-8~-10~-|
|--0000-00-----------000000------------0000-00-----------8~-10~-| 

|----------------------------------------------------------------|
|----------------------------------------------------------------|
|----------------------------------------------------------------|
|----------7h8p7---------------7-0-10-----------7h8p7------------|
|--0000-00-------7h8-0-0-0-0-0--------0000-00---------7h8-10~-8~-|
|--0000-00-----------0-0-0-0-0--------0000-00-------------10~-8~-|
                                 .
|---------------------------------------------------------------|
|---------------------------------------------------------------|
|---------------------------------------------------------------|
|----------7h8p7---------------7h8p7-----------7h8p7------------|
|--0000-00-------7h8-0-0-0-0-0-------8-0000-00-------7h8-10~-8~-|
|--0000-00-----------0-0-0-0-0---------0000-00-----------10~-8~-|

|----------------------------------------------------------------|
|----------------------------------------------------------------|
|----------------------------------------------------------------|
|----------7h8p7---------------7-0-10-----------7h8p7------------|
|--0000-00-------7h8-0-0-0-0-0--------0000-00---------7h8-8~-10~-|
|--0000-00-----------0-0-0-0-0--------0000-00-------------8~-10~-|

 riff 3 
|--------------------------------------------------------|
|--------------------------------------------------------|
|--------------------------------------------------------|
|--7-7-77-10p8-10-3-3-33------0-0-00-------222222/333333-|
|--7-7-77---------3-3-33-10-7-0-0-00-7h8-7-222222/333333-| (x2)
|--7-7-77---------3-3-33------0-0-00-------222222/333333-|

 riff 4 (both)
|----------------------------------------------------|
|----------------------------------------------------|
|----------------------------------------------------|
|--777777777777777777777777333333333333333333333333--|
|--777777777777777777777777333333333333333333333333--|
|--777777777777777777777777333333333333333333333333--|
                                 

|--------------------------------------------------|
|--------------------------------------------------|
|--------------------------------------------------|
|--000-000-787787-33333333333333335555555555555555-|
|--000-000--------33333333333333335555555555555555-|
|--000-000--------33333333333333335555555555555555-|
          

 gtr 1
|----------------------------------------------------|
|----------------------------------------------------|
|----------------------------------------------------|
|--777777777777777777777777333333333333333333333333--|
|--777777777777777777777777333333333333333333333333--|
|--777777777777777777777777333333333333333333333333--|

|----------------------------|
|----------------------------|
|----------------------------|
|--0-0-0-------------3~--5\2-|
|--0-0-0----8-8-7----3~--5\2-|
|--0-0-0-10-------10-3~--5\2-|
   . . .
 
 gtr 2
|------------------------------------------------------------|
|------------------------------------------------------------|
|------------------------------------------------------------|
|------------------------------------------------------------|
|--7-8-10-10-8-7-7-8-10-10-8-7-/12-10-8-10-8-7-10-8-7-8-7-5--|
|------------------------------------------------------------|

|-----------------------------|
|-----------------------------|
|-----------------------------|
|--0-0-0----------------------|
|--0-0-0-5-/12-10-8-7-5-7-5\2-|
|--0-0-0----------------------|
   . . .
 
 cool break gtr 1
|------------------------------------|
|------------------------------------|
|------------------------------------|
|------------------------------------|
|------------------------------------|
|--000000000-0-0-0-------------------|
   ......... . . .
 
 gtr 2   
|------------------------------------|
|------------------------------------|
|------------------------------------|
|------------------------------------|
|------------------------------------|
|--------------------00000000-0-0-0--|
                     ........ . . .
 riff 5 both
|-----------------------------------|
|-----------------------------------|
|-----------------------------------|
|-----------------------------------|
|--00000000-0-0-0~-00000000-0-0-0~--|
|--00000000-0-0-0~-00000000-0-0-0~--| (x3)
   ........ . . .  ........ . . .
 
 then...
|----------------|         |----------------|
|----------------|         |----------------|
|----------------|         |----------------|
|--10-8-7h8p7----|         |----------------|
|------------8---| gtr 1   |--10-8-7h8p7-3--| gtr 2 (riff 5 x4)
|----------------|         |----------------|

 riff 6 (gtr 1)
|--------------------------------------------------------------------|
|--------------------------------------------------------------------|
|--------------------------------------------------------------------|
|--7-777-7-777-7-77-7-777-7-777-7\3-333-3-333-3-33-3-333-3-333-3-33--|
|--7-777-7-777-7-77-7-777-7-777-7\3-333-3-333-3-33-3-333-3-333-3-33--|
|--7-777-7-777-7-77-7-777-7-777-7\3-333-3-333-3-33-3-333-3-333-3-33--|
     ...   ...   ..   ...   ...     ...   ...   ..   ...   ...   ..

 (gtr 2)
|--------------------------------------------------------------------|
|--------------------------------------------------------------------|
|--------------------------------------------------------------------|
|--7---------------------------7\3-----------------------------------|
|--7---------------------------7\3-----------------------------------|
|--7---------------------------7\3-----------------------------------|

 both
|-----------------------------------|
|-----------------------------------|
|-----------------------------------|
|--0~-----------------------3~--5~--|
|--0~--77777777778888877777-3~--5~--| (x2)
|--0~-----------------------3~--5~--|

 part of riff 3 (both)
|-------------------------|
|-------------------------|
|-------------------------|
|--7-7-77-10p8-10-7-7-77--|
|--7-7-77---------7-7-77--|
|--7-7-77---------7-7-77--|

repeat all riff 4
and..

|-------|
|-------|
|-------|
|--2~---| gtr 1
|--2~---|
|--2~---| 

|-------|
|-------|
|-------|
|-------| gtr 2
|--2~---|
|-------| 

not sure about solo during piano break

 little part after solo

|--------------------------------|
|--------------------------------|
|--------------------------------|
|--777-999-101010-999-77-99-(x4)-|
|--------------------------------|
|--------------------------------|
    ..  ..    . .  ..  .  .
not to sure about that part(close enough)
 riff 7 (gtr 1)
|--------------------------------------------------------------------|
|--------------------------------------------------------------------|
|--------------------------------------------------------------------|
|--7-777-7-777-7-77-7-777-7-777-7\3-333-3-333-3-33-3-333-3-333-3-33--|
|--7-777-7-777-7-77-7-777-7-777-7\3-333-3-333-3-33-3-333-3-333-3-33--|
|--7-777-7-777-7-77-7-777-7-777-7\3-333-3-333-3-33-3-333-3-333-3-33--|
     ...   ...   ..   ...   ...     ...   ...   ..   ...   ...   ..

|-----------------------------------------------------------------------|
|-----------------------------------------------------------------------|
|-----------------------------------------------------------------------|
|--0-000-0-000-0-00-0-000-0-000-0-00-3-333-3-333-3-33-5-555-5-555-5-55--| x2
|--0-000-0-000-0-00-0-000-0-000-0-00-3-333-3-333-3-33-5-555-5-555-5-55--|
|--0-000-0-000-0-00-0-000-0-000-0-00-3-333-3-333-3-33-5-555-5-555-5-55--|
     ...   ...   ..   ...   ...   ..   ...   ..   ...   ...   ...   ..

 (gtr 2)
|---------------------------|
|---------------------------|
|---------------------------|
|--232532-(x4)-7-5-3-5-3-2--| x2
|---------------------------|
|---------------------------|
  

 riff 8 (gtr 1)
|-----------------------------------------|
|-----------------------------------------|
|-----------------------------------------|
|--7-------3-------0-------3------5-------|
|--7-------3-------0-------3------5-------|
|--7-(x16)-3-(x16)-0-(x16)-3-(x8)-5-(x8)--|

 (gtr 2)
|-------------------------------------|
|-------------------------------------|
|-------------------------------------|
|-------------------------------------|
|--7-5-3-3-2-3-(x2)-3-5-7-8-7-5-(x2)--|
|-------------------------------------|

 end (both)
|---------|
|---------|
|---------|
|--7~\3~--|
|--7~\3~--|
|--7~\3~--| hold til faded out

and that's it. if anyone can find the guitar solo please let me know.
and if there's any corrections anyone can find tell me. thanks.
Tap to rate this tab
 
# A B C D E F G H I J K L M N O P Q R S T U V W X Y Z