Song name
# A B C D E F G H I J K L M N O P Q R S T U V W X Y Z

Beneath The Sky - A Tale From The Northside tab

Palm Mute <*>
Bend 
Let Ring <~>
(this is an update on my last tab) this one is more accurate.
D)--------------------------------|
A)--------------------------------|
F)--------------------------------|
C)2-2--222-2-22-222-2--222-2-2----|  
G)1-1--111-1-11-111-1--111-1-1----|
C)2-2--222-2-22-222-2--222-2-2-2b-|
  * *  *** * ** *** *  *** * *
D)----------------------------------|
A)----------------------------------|
F)----------------------------------|
C)2-2--222-2-22-222-2--222-0-2-0----|
G)2-2--222-2-22-222-2--222-0-2-0----|
C)2-2--222-2-22-222-2--222-0-2-0-2b-|
  * *  *** * ** *** *  *** * * *
D)--------------------------------|
A)--------------------------------|
F)--------------------------------|
C)2-2--222-2-22-222-2--222-2-2----|        x4
G)1-1--111-1-11-111-1--111-1-1----|
C)2-2--222-2-22-222-2--222-2-2-2b-|
  * *  *** * ** *** *  *** * *
D)--------------------------------|
A)--------------------------------|
F)--------------------------------|       x4
C)11111111444433337777777744443333|
G)11111111444433337777777744443333|
C)11111111444433337777777744443333|

D)--------------------------------|
A)--------------------------------|
F)--------------------------------|
C)2-2--222-2-22-222-2--222-2-2----|       x4
G)1-1--111-1-11-111-1--111-1-1----|
C)2-2--222-2-22-222-2--222-2-2-2b-|
  * *  *** * ** *** *  *** * *
D)--------------------------------|
A)--------------------------------|
F)--------------------------------|       x4
C)11111111444433337777777744443333|
G)11111111444433337777777744443333|
C)11111111444433337777777744443333|

Post-Breakdown
D)----------------------------------------|
A)----------------------------------------|
F)----------------------------------------|
C)3-2-3-2-------000--3-2-3-2-------000----|   x2
G)2-1-2-1-------000--2-1-2-1-------000----|
C)3-2-3-2--3-2--000--3-2-3-2--3-2--000----|
  * * * *       ***  * * * *       ***
Breakdown
D)----------------------------------------------|
A)----------------------------------------------|
F)----------------------------------------------|
C)0000--------000---000---0000-------000---000--|   x2
G)0000--------000---000---0000-------000---000--|
C)0000--------000---000---0000-------000---000--|
  ****        ***   ***   ****       ***   ***
D)----------------------------------------------|
A)----------------------------------------------|
F)----------------------------------------------|
C)1111~~~-----111~--111~~-1111~~~----111~--111~-|
G)1111~~~-----111~--111~~-1111~~~----111~--111~-|
C)1111~~~-----111~--111~~-1111~~~----111~--111~-|
  ****        ***   ***   ****       ***   ***
D)----------------|
A)----------------|
F)----------------|
C)0~~~--1~0~~~~~~-|
G)0~~~--1~0~~~~~~-|
C)0~~~--1~0~~~~~~-|

D)------------------------------------|
A)------------------------------------|
F)------------------------------------|
C)2-2--222-2-22-222-2--222-2-2--------|    x3
G)1-1--111-1-11-111-1--111-1-1--------|
C)2-2--222-2-22-222-2--222-2-2-2b-----|
  * *  *** * ** *** *  *** * *

D)--------------------------------------|
A)--------------------------------------|
F)--------------------------------------|
C)2-2--222-2-22-222-2--222-2-2----------|
G)1-1--111-1-11-111-1--111-1-1----------|
C)2-2--222-2-22-222-2--222-2-2-2b~~~~~~-|
  * *  *** * ** *** *  *** 

Have fun! Please rate and enjoy!!!
Tap to rate this tab
 
# A B C D E F G H I J K L M N O P Q R S T U V W X Y Z