Guitaretab - guitar tabs
Song name
# A B C D E F G H I J K L M N O P Q R S T U V W X Y Z

Beneath The Sky - 7861 tab

----------------------
7861 Ė Beneath The Sky
-----------------------
Tabbed by: Vertebraille
Email:
Tuning: Drop C
Note : Okay, I said I was gonna tab this so here it is. Hopefully most of it is right. 
This is how I play it.
Intro (Palm mutes not shown)
|-----------------------------------------------------------------------------|
|-----------------------------------------------------------------------------|
|-----------------------------------------------------------------------------|
|-----------------------------------------------------------------------------|
|-0000000000-0000000000-0-1~--0-00-00-00--0000000000-0-3-1~-------------------|
|-0000000000-0000000000-0-1~--0-00-00-00--0000000000-0-3-1~-------------------|

|-----------------------------------------------------------------------------|
|-----------------------------------------------------------------------------|
|-----------------------------------------------------------------------------|
|-----------------------------------------------------------------------------|
|--00000000-0-00-00-00-000000000-000000000--0-1-3~----------------------------|
|--00000000-0-00-00-00-000000000-000000000--0-1-3~----------------------------|

|---------------------------------------------------------------------------|
|---------------------------------------------------------------------------|
|---------------------------------------------------------------------------|
|---------------------------------------------------------------------------|
|-1p0-0-00-0-0000------100300400300-----------------------------------------|
|-1p0-0-00-0-0000------100300400300-----------------------------------------|
Riff 1
Guitar 1
|---------------------------------------------------------------------------|
|---------------------------------------------------------------------------|
|-7-10-12--151415-12-10-7-(x2)--8-7-8-10------------------------------------|
|---------------------------------------------------------------------------|
|-5--9-10--131212-10--7-9-------6-5-6--9------------------------------------|
|---------------------------------------------------------------------------|
Guitar 2 (Ones and zeroes. Not tens)
|---------------------------------------------------------------------------|
|---------------------------------------------------------------------------|
|---------------------------------------------------------------------------|
|10--10--10----------------10-00-10-00-10-00--------------0-----3-2-3-5-----|
|10--10--10--100300400300--10-00-10-00-10 00-100300400300-0-----3-2-3-5-----|
|10--10--10--100300400300--10-00-10-00-10 00-100300400300-0-----3-2-3-5-----|
Pm            .. .. .. ..    .     .     .   .. .. .. ..
Preverse
|---------------------------------------------------------------------------|
|---------------------------------------------------------------------------|
|---------------------------------------------------------------------------|
|---------------------------8---8-7------8---8-7-8--------------------------|
|-00-12-10-8-000-12-10-8-88---------8-88------------------------------------|
|-00---------000---------88---8-------88---8--------------------------------|
Pm..         ...         ..   .       ..   .
|---------------------------------------------------------------------------|
|---------------------------------------------------------------------------|
|---------------------------------------------------------------------------|
|---------------------------------------------------------------------------|
|-00---------000---------88----------88-------------------------------------|
|-00---------000---------88----------88-------------------------------------|
Pm..         ...         ..          ..
Both guitars
|--------------------------------------------------------------------|
|--------------------------------------------------------------------|
|--------------------------------------------------------------------|
|-5-555-555-555-555-555-555-55-8-888888-7-777777---------------------|
|-5-555-555-555-555-555-555-55-8-888888-7-777777---------------------|
|-5-555-555-555-555-555-555-55-8-888888-7-777777---------------------|
Pm  ... ... ... ... ... ... ..   ......   ......
Verse Both Guitars

|---------------------------------------------------------------------------------|
|---------------------------------------------------------------------------------|
|---------------------------------------------------------------------------------|
|----------------------------8-87-------8-878-------------------------------------|
|-00-12-10-8-000-12-10-8-888-----8-8----------------------------------------------|
|-00---------000---------888--8----8---8-8----------------------------------------|
Pm           ...         ...  .        . .
|--------------------------------------------------------------------|
|--------------------------------------------------------------------|
|--------------------------------------------------------------------|
|-5-555-555-555-555-555-555-55-8-888888-7-777777---------------------|
|-5-555-555-555-555-555-555-55-8-888888-7-777777---------------------|
|-5-555-555-555-555-555-555-55-8-888888-7-777777---------------------|
Pm  ... ... ... ... ... ... ..   ......   ......
|----------------------------------------------------------------------------------|
|----------------------------------------------------------------------------------|
|----------------------------------------------------------------------------------|
|----------------------------8-87--8---8--878---------------------------------------|
|-00-12-10-8-000-8-10-12-888-----8-8-----------------------------------------------|
|-00---------000---------888--8----8--8--8-----------------------------------------|
Pm           ...         ...  .       .  .
|-------------------------------------------------------------------|
|-------------------------------------------------------------------|
|-------------------------------------------------------------------|
|-5-555-555-555-555-555-555-55-8-888888-10101010101010--------------|
|-5-555-555-555-555-555-555-55-8-888888-10101010101010--------------|
|-5-555-555-555-555-555-555-55-8-888888-10101010101010--------------|
Pm  ... ... ... ... ... ... ..   ......
Guitar 1
|---------------------------------------------------------------------------|
|---------------------------------------------------------------------------|
|---------------------------------------------------------------------------|
|----/10-8-7---7-8-10----12-12p10-10----12-12p10-12/15~~~-------------------|
|-00--------00--------88-------------88-------------------------------------|
|-00--------00--------------------------------------------------------------|

|---------------------------------------------------------------------------|
|---------------------------------------------------------------------------|
|---------------------------------------------------------------------------|
|-8-888888-7-77777----------------------------------------------------------|
|-8-888888-7-77777----------------------------------------------------------|
|-8-888888-7-77777----------------------------------------------------------|
Pm  ......   .....
Guitar 2
|---------------------------------------------------------------------------|
|---------------------------------------------------------------------------|
|---------------------------------------------------------------------------|
|----10-8-7----7-8-10----12-12p10-10----12-12p10-12-------------------------|
|-00--------00--------88-------------88-------------------------------------|
|-00--------00--------------------------------------------------------------|
[ Tab from: http://www.guitaretab.com/b/beneath-the-sky/88282.html ]
|--------------------------------------------------------------------|
|--------------------------------------------------------------------|
|--------------------------------------------------------------------|
|-5-555-555-555-555-555-555-55-8-888888-7-777777---------------------|
|-5-555-555-555-555-555-555-55-8-888888-7-777777---------------------|
|-5-555-555-555-555-555-555-55-8-888888-7-777777---------------------|
Pm  ... ... ... ... ... ... ..   ......   ......
Guitar 1
|--------------------------------------------------------------------------|
|--------------------------------------------------------------------------|
|--------------------------------------------------------------------------|
|----10-8-7------7-8-10-----12-12p10-10-----12-12p10-12/15~-14~-10~--------|
|-00---------000--------8---------------8----------------------------------|
|-00---0-0-0-000--0-0---8-8---8---------8-8---8----------------------------|
Pm..   . . . ...  . .     .   .           .   .


|---------------------------------------------------------------------------|
|---------------------------------------------------------------------------|
|---------------------------------------------------------------------------|
|-8-888888-7-77777----------------------------------------------------------|
|-8-888888-7-77777----------------------------------------------------------|
|-8-888888-7-77777----------------------------------------------------------|
Pm  ......   .....

Guitar 2
|---------------------------------------------------------------------------|
|---------------------------------------------------------------------------|
|---------------------------------------------------------------------------|
|----10-8-7------7-8-10-----12-12p10-10-----12-12p10-12---------------------|
|-00---------000--------8---------------8-----------------------------------|
|-00---0-0-0-000--0-0---8-8---8---------8-8---8-----------------------------|
Pm..   . . . ...  . .     .   .           .   .

|--------------------------------------------------------------------|
|--------------------------------------------------------------------|
|--------------------------------------------------------------------|
|-5-555-555-555-555-555-555-55-8-888888-7-777777---------------------|
|-5-555-555-555-555-555-555-55-8-888888-7-777777---------------------|
|-5-555-555-555-555-555-555-55-8-888888-7-777777---------------------|
Pm  ... ... ... ... ... ... ..   ......   ......


Breakdown (Palm muted)
|---------------------------------------------------------------------------|
|---------------------------------------------------------------------------|
|---------------------------------------------------------------------------|
|-0----------------0----------------8----------------10--------------7------|
|-0-00-0-0-0-0-000-0-00-0-0-0-0-000-8-88-8-8-8-8-888-10-1010-101010107-77777|
|-0-00-0-0-0-0-000-0-00-0-0-0-0-000-8-88-8-8-8-8-888-10-1010-101010107-77777|

Chorus
|-----------------------------------------------------------|
|-----------------------------------------------------------|
|-10-1010-101010-9-99-5-55--7--7--7--7--7--7~---------------|
|---------------------------7--7--7--7--7--7~--000----------|
|--8--8-8--8-8-8-7-77-3-33--5005005005005005~--000----------|
|----------------------------00-00-00-00-00----000----------|
PM                           .. .. .. .. ..    ...

|---------------------------------------------------------|
|---------------------------------------------------------|
|-10--9--10--9--10--5--7---12-12--------------------------|
|---------------------------------------------------------|
|--8--7---8--7---8--3--5---10-10--------------------------|
|---------------------------------------------------------|
(Im not gonna include the rhythm here, but itís basically the same as the first part)


Fill
Guitar 1
e|---------------------------------------------------------------------------|
B|---------------------------------------------------------------------------|
G|---------------------------------------------------------------------------|
D|----10-8-7-7h8p7-----------------------------------------------------------|
A|-00-------------10-8-7-8-7-5-----------------------------------------------|
E|-00---0-0-0----------------------------------------------------------------|
Pm ..   . . .      . . . . .
Guitar 2
|---------------------------------------------------------------------------|
|---------------------------------------------------------------------------|
|---------------------------------------------------------------------------|
|---------------------------------------------------------------------------|
|-0-10-8-7-7h8p7ó--7/8------------------------------------------------------|
|-0---0-0-0-----78----------------------------------------------------------|
Pm    . . .     ..

Verse 2
Guitar 1 (Guitar 2 plays the same thing, but the ending is 8/7 on the 5th string)
|---------------------------------------------------------------------------|
|---------------------------------------------------------------------------|
|--------------------------------------------------------------------10/9---|
|---------------------------------------------------------------------------|
|-0-12-10-8-8-8-8/7-0-12-10-8-8-8-8/7-8-8-8-8-8-8-8/7-10-8--8/7-7-8---------|
|-0---0--0-0-0-0----0---0--0-0-0-0----8--8-8-8-8-8----10--10----7--7--------
Pm    .  . . . .        .  . . . .       . . . . .         .       .

Breakdown (Palm mutes not shown)
|---------------------------------------------------------------------------|
|---------------------------------------------------------------------------|
|---------------------------------------------------------------------------|
|-0----------------0----------------8----------------10--------------7------|
|-0-00-0-0-0-0-000-0-00-0-0-0-0-000-8-88-8-8-8-8-888-10-1010-101010107-77777|
|-0-00-0-0-0-0-000-0-00-0-0-0-0-000-8-88-8-8-8-8-888-10-1010-101010107-77777|

Chorus
|-----------------------------------------------------------|
|-----------------------------------------------------------|
|-10-1010-101010-9-99-5-55--7--7--7--7--7--7~---------------|
|---------------------------7--7--7--7--7--7~--000----------|
|--8--8-8--8-8-8-7-77-3-33--5005005005005005~--000----------|
|----------------------------00-00-00-00-00----000----------|
PM                           .. .. .. .. ..    ...

|---------------------------------------------------------|
|---------------------------------------------------------|
|-10--9--10--9--10--5--7---12-12--------------------------|
|---------------------------------------------------------|
|--8--7---8--7---8--3--5---10-10--------------------------|
|---------------------------------------------------------|
(Im not gonna include the rhythm here, but itís basically the same as the first part)

(Got this part from "shot from above"s tab. Iím too lazy to type and itís pretty much 
anyway. Open chords are palm muted btw.)
Buildup
|------------------|------------------|------------------|-----------|
|---------44444444-|---------44444444-|---------44444444-|-----------|
|---------77777777-|---------77777777-|---------77777777-|-----------|
|------------------|------------------|------------------|-----------|
|-0-0-0-0----------|-0-0-0-0----------|-0-0-0-0----------|-0-0-0-0---|
|-0-0-0-0----------|-0-0-0-0----------|-0-0-0-0----------|-0-0-0-0---|
|
|------------------|------------------|------------------|-----------|
|------------------|---------44444444-|------------------|-----------|
|------------------|---------77777777-|------------------|-----------|
|------------------|------------------|------------------|-----------|
|-0-0-0-0----------|-0-0-0-0----------|-0-0-0-0----------|-0-0-0-0---|
|-0-0-0-0----------|-0-0-0-0----------|-0-0-0-0----------|-0-0-0-0---|
Breakdown (x2)
|------------------|------------------|------------------|------------------|
|---------44444444-|---------44444444-|---------44444444-|---------44444444-|
|---------77777777-|---------77777777-|---------77777777-|---------77777777-|
|------------------|------------------|------------------|------------------|
|-0-0-0-0----------|-0-0-0-0----------|-0-0-0-0----------|-0-0-0-0----------|
|-0-0-0-0----------|-0-0-0-0----------|-0-0-0-0----------|-0-0-0-0----------|
Ending
Guitar 1
|---------------------------------------------------------------------------|
|---------------------------------------------------------------------------|
|---------------------------------------------------------------------------|
|----10-8-7-7h8p7-----------------------------------------------------------|
|-00-------------7-8-10-8-7-5-----------------------------------------------|
|-00---0-0-0----------------------------------------------------------------|
Pm ..   . . .     . .  . . .
|---------------------------------------------------------------------------|
|---------------------------------------------------------------------------|
|---------------------------------------------------------------------------|
|---------------------------------------------------------------------------|
|-0-10-8-7-7h8p7ó--7/8------------------------------------------------------|
|-0---0-0-0-----78----------------------------------------------------------|
Pm    . . .     ..
Related for 7861 tab