Song name
# A B C D E F G H I J K L M N O P Q R S T U V W X Y Z

Beneath The Sky - How The Times Have Changed tab

---------|
---------|
-3-1-----|
-3-1-----|
-3-1-----|

---------------------------|
---------------------------|
---------------------------|
------0-0------3-1-3-1-0---|
--5-6-0-0-3-5--3-1-3-1-0---|
------0-0------3-1-3-1-0---| x4

---------------------------|
---------------------------|
---------------------------|
------0-0--6-5--3-1-3-1-0--|
--5-6-0-0-------3-1-3-1-0--|
------0-0-------3-1-3-1-0--|

---------------------------|
---------------------------|
---------------------------|
------0-0-------3-1-3-1-0--|
--5-6-0-0--3-5--3-1-3-1-0--|
------0-0-------3-1-3-1-0--|

---------------------------|
---------------------------|
---------------------------|
------0-0-------1-3-3-5-0--|
--5-6-0-0--3-5--1-3-3-5-0--|
------0-0-------1-3-3-5-0--|

--------------------------------------|
--------------------------------------|
--------------------------------------|
-000---------000----------000-000-----|
-000-555-666-000-333-555--000-000-----|
-000---------000----------000-000-----|

------------|
------------|
------------|
-1-3-3-5----|
-1-3-3-5----|
-1-3-3-5----|

---------------------------------------|
---------------------------------------|
---------------------------------------|
-000-555-666-000----------000-000------|
-000---------000-555-666--000-000------|
-000---------000----------000-000------|

---------------------------------------|
---------------------------------------|
---------------------------------------|
-000-555-666-000-888-666--000-000------|
-000---------000----------000-000------|
-000---------000----------000-000------|

---------------------------------------|
---------------------------------------|
---------------------------------------|
-000-555-666-000----------000-000------|
-000---------000-555-666--000-000------|
-000---------000----------000-000------| x2

----------------------------------------------------------|
----------------------------------------------------------|
----------------------------------------------------------|
----------------------------------------------------------| Gtr.1
--7-7-7-7h8---7-7-7-7h10--7-7-7-7h8--7-7-7-7---5-5-5-5----|
-0-0-0-0-----0-0-0-0-----0-0-0-0----0-0-0-0---0-0-0-0-----|

----------------------------------------------------------|
----------------------------------------------------------|
----------------------------------------------------------|
-------------------------------------7---------5----------| Gtr.2
--7-7-7-7h8---7-7-7-7h10--7-7-7-7h8--7---------5----------|
-0-0-0-0-----0-0-0-0-----0-0-0-0-----7---------5----------|

---------------------------------------------------------------|
---------------------------------------------------------------|
---------------------------------------------------------------|
---------------------------------------------------------------|
---7-7---8-8---9-9---10-10----12-12---13-13---15-15---17-17----|
-00-0--00-0--00-0--00--0----00--0---00--0---00--0---00--0------|

----------------------------------------------------------|
----------------------------------------------------------|
----------------------------------------------------------|
----------------------------------------------------------| Gtr.1
--7-7-7-7h8---7-7-7-7h10--7-7-7-7h8--7-7-7-7---5-5-5-5----|
-0-0-0-0-----0-0-0-0-----0-0-0-0----0-0-0-0---0-0-0-0-----|

----------------------------------------------------------|
----------------------------------------------------------|
----------------------------------------------------------|
-------------------------------------7---------5----------| Gtr.2
--7-7-7-7h8---7-7-7-7h10--7-7-7-7h8--7---------5----------|
-0-0-0-0-----0-0-0-0-----0-0-0-0-----7---------5----------|

----------------------------------------------------|
----------------------------------------------------|
----------------------------------------------------|
-777777777--888888888---77777777--888888--101010----|
-777777777--888888888---77777777--888888--101010----|
-777777777--888888888---77777777--888888--101010----|

---------------------------------------|
---------------------------------------|
---------------------------------------|
---------------------------------------|
-7-8-7-8-10-8-7-8---7-8-7-8-10-8-7-8---|
---------------------------------------| x2

-----------------------|
-----------------------|
-----------------------|
-----------------------|
--8-7-8-10-8-7---------|
-----------------------|

--------------------------------------|
--------------------------------------|
--------------------------------------|
-7-9-7-9-11-9-7-9---7-9-7-9-11-9-7-9--|
--------------------------------------|
--------------------------------------| x3

---------------------|
---------------------|
---------------------|
--9-7-9-11-9-7-------|
---------------------|
---------------------|

-----------------------------------------------------------|
-----------------------------------------------------------|
-----------------------------------------------------------|
-000----------------000----------------000-----------------|
-000-8-7-5-3-2-2-3--000-8-7-5-10-8-7-8-000-8-7-5-3-2-2-3---|
-000----------------000----------------000-----------------|

-----------------------|
-----------------------|
-----------------------|
-000-------------------|
-000-8-7-5-12-10-9-10--|
-000-------------------|

----------------------------------------------------------|
----------------------------------------------------------|
----------------------------------------------------------|
----------------------------------------------------------| Gtr.1
--7-7-7-7h8---7-7-7-7h10--7-7-7-7h8--7-7-7-7---5-5-5-5----|
-0-0-0-0-----0-0-0-0-----0-0-0-0----0-0-0-0---0-0-0-0-----|

----------------------------------------------------------|
----------------------------------------------------------|
----------------------------------------------------------|
--------------------------------------7--------5----------| Gtr.2
--------------------------------------7--------5----------|
--------------------------------------7--------5----------|

----------------------------------------------------------|
----------------------------------------------------------|
----------------------------------------------------------|
----------------------------------------------------------| Gtr.1
--7-7-7-7h8---7-7-7-7h10--7-7-7-7h8--7-7-7-7---5-5-5-5----|
-0-0-0-0-----0-0-0-0-----0-0-0-0----0-0-0-0---0-0-0-0-----|

----------------------------------------------------------|
----------------------------------------------------------|
----------------------------------------------------------|
-------------------------------------7---------5----------| Gtr.2
--7-7-7-7h8---7-7-7-7h10--7-7-7-7h8--7---------5----------|
-0-0-0-0-----0-0-0-0-----0-0-0-0-----7---------5----------|


-----------------------------|
-----------------------------|
-----------------------------|
-7--8---7--888888--101010----|
-7--8---7--888888--101010----|
-7--8---7--888888--101010----|

---------------------------------------|
---------------------------------------|
---------------------------------------|
---------------------------------------|
-7-8-7-8-10-8-7-8---7-8-7-8-10-8-7-8---|
---------------------------------------| x2

-----------------------|
-----------------------|
-----------------------|
-----------------------|
--8-7-8-10-8-7---------|
-----------------------|

--------------------------------------|
--------------------------------------|
--------------------------------------|
-7-9-7-9-11-9-7-9---7-9-7-9-11-9-7-9--|
--------------------------------------|
--------------------------------------| x3

---------------------|
---------------------|
---------------------|
--9-7-9-11-9-7-------|
---------------------|
---------------------|

-----------------------------------------------------------|
-----------------------------------------------------------|
-----------------------------------------------------------|
-000----------------000----------------000-----------------|
-000-8-7-5-3-2-2-3--000-8-7-5-10-8-7-8-000-8-7-5-3-2-2-3---|
-000----------------000----------------000-----------------|

-----------------------|
-----------------------|
-----------------------|
-000-------------------|
-000-8-7-5-12-10-9-10--|
-000-------------------|

---------------------------|
---------------------------|
---------------------------|
------0-0--------0000000---|
--5-6-0-0-3-5----0000000---|
------0-0--------0000000---|
Tap to rate this tab
# A B C D E F G H I J K L M N O P Q R S T U V W X Y Z