Guitaretab - guitar tabs
Song name
# A B C D E F G H I J K L M N O P Q R S T U V W X Y Z

Beneath The Sky - A Grave Mistake tab

-------------------------------------------------------------------------------
A Grave Mistake  Beneath The Sky
-------------------------------------------------------------------------------
Tabbed by: Vertebraille
Email:
 
Tuning: Drop C

Note : Palm mutes are not shown, because they can be easily heard when you listen
to the song while looking at this tab.

Edit 1 : Fixed verse

Intro/Verse
e|---------------------------------------------------------------------------|
B|---------------------------------------------------------------------------|
G|---------------------------------------------------------------------------|
D|-0-----------------0---------------8-----------------7-------5-------------|
A|-0-5-4-5-5h7--7hp8-0-5-4-5h77h8p7-8-8-8-8-8-10-12-8-7-5-4-5-5-5-4-5-------|
E|-0--0-0-0---00-----0--0-0---00-----8--8-8-8----------7--0-0--5--0-0--------|

Play this when vocals come in(Rhythm not shown)
e|---------------------------------------------------------------------------|
B|---------------------------------------------------------------------------|
G|-7-9-10-12-10-14-12-14-17-14-12-9-10-12-14-12-14-10------------------------|
D|---------------------------------------------------------------------------|
A|-5-7--8-10--8-12-10-12-15-12-10-7--8-10-12-10-12--8------------------------|
E|---------------------------------------------------------------------------|
[ Tab from: http://www.guitaretab.com/b/beneath-the-sky/99953.html ]
Chorus 
e|---------------------------------------------------------------------------|
B|---------------------------------------------------------------------------|
G|---------------------------------------------------------------------------|
D|----------------------------------------------------0--0--0-5--5--5--------|
A|-8757--8757--8757-10878--10878--10878-/12-10-8-10-7-0000000-5555555--------|
E|-----00----00----------00-----00--------------------0000000-5555555--------|
 
Post chorus
e|---------------------------------------------------------------------------|
B|---------------------------------------------------------------------------|
G|---------------------------------------------------------------------------|
D|-131-0-131-0-131-0-131-0--3-6----------------------------------------------|
A|-131-0-131-0-131-0-131-0--3-6----------------------------------------------|
E|-131-0-131-0-131-0-131-0--3-6----------------------------------------------|
 
Breakdown
e|---------------------------------------------------------------------------|
B|---------------------------------------------------------------------------|
G|---------------------------------------------------------------------------|
D|-000-000-00-00--000-000-00-00-000-000-00-00-000-000-3-6---------------------|
A|-000-000-00-00--000-000-00-00-000-000-00-00-000-000-3-6---------------------|
E|-000-000-00-00--000-000-00-00-000-000-00-00-000-000-3-6---------------------|

Verse 2
e|---------------------------------------------------------------------------|
B|---------------------------------------------------------------------------|
G|---------------------------------------------------------------------------|
D|--------------------8-----------------5-----------------8-7-10-875---------|
A|-00-5-4-5-000-5-4-5-8-5-4-5-000-5-4-5-5-5-4-5-000-5-4-5-8-7-10-875---------|
E|-00--0-0--000--0-0--8--0-0--000--0-0--5--0-0--000--0-0--8-7-10-875---------|
 
e|---------------------------------------------------------------------------|
B|---------------------------------------------------------------------------|
G|---------------------------------------------------------------------------|
D|-0-----------------0-----------------0-----------------888-777-101010-875--|
A|-0-5-4-5-5-7-7h8p7-0-5-4-5-5-77h8p7-0-5-4-5-5-7-7h8p7-888-777-101010-875--|
E|-0--0-0-0-0-0------0--0-0-0-0-0------0--0-0-0-0-0------888-777-101010-875--|


 

 

(Post solo)


Guitar 1
e|---------------------------------------------------------------------------|
B|---------------------------------------------------------------------------|
G|---------------------------------------------------------------------------|
D|----------------------------------------------------------0--0--0-5--5--5--|
A|-8757----8757----10878----10878----/12-10-8-10-7h8p7p8p7--0000000-5555555--|
E|-----0000----0000-----0000-----0000-----------------------0000000-5555555--|
 
Guitar 2
e|---------------------------------------------------------------------------|
B|---------------------------------------------------------------------------|
G|---------------------------------------------------------------------------|
D|--------------------------------------------------------------------0------|
A|-10878----10878----1210810----1210810-----/14-12-10-12-8h10p8h10p8--000-etc|
E|------0000-----0000-------0000-------0000---------------------------000----|

Related for A Grave Mistake tab