Beneath The Veil - To My Adversaries tab

                                                        xx
|000-0-000-------000-0-000-0----000-0-000-0-000-----1-1-00-1-1-1~~~---------|
|000-0-000-------000-0-000-0----000-0-000-0-000-----1-1-00-1-1-1~~----------|
|000-0-000-------000-0-000-0----000-0-000-0-000-----1-1-00-1-1-1~-----------|
|--------------------------------------------------reapeat(x2)--------------|
|---------------------------------------------------------------------------|
|---------------------------------------------------------------------------|
   x  x  x  x xxx xxx
|-50-40-30-20-111-111-------------------------------------------------------|
|4-03-02-01-0-001-000-------------------------------------------------------|
|------------------repeat(x4)-----------------------------------------------|
|---------------------------------------------------------------------------|
|---------------------------------------------------------------------------|
|---------------------------------------------------------------------------|
    x x x x x x x x x x     x
|0~~0-0-0-0-0-0-0-0-0-0-1p0-0-4--4-4-4-4-4-4-4-0--4-0---3-1-0---------------|
|0~~0-0-0-0-0-0-0-0-0-0-1p0-0-4--4-4-4-4-4-4-4---3----2-----0---------------|
|0~~0-0-0-0-0-0-0-0-0-0-1p0-0-4--4-4-4-4-4-4-4--------------0---------------|
|---------------------------------------------------------------------------|
|---------------------------------------------------------------------------|
|---------------------------------------------------------------------------|

    x x x x x x x x x x     x                         *
|0~~0-0-0-0-0-0-0-0-0-0-1p0-0-4--4-4-4-4-4-4-4-0--4-0-----------------------|
|0~~0-0-0-0-0-0-0-0-0-0-1p0-0-4--4-4-4-4-4-4-4---3----2---------------------|
|0~~0-0-0-0-0-0-0-0-0-0-1p0-0-4--4-4-4-4-4-4-4------------------------------|
|---------------------------------------------------------------------------|
|---------------------------------------------------------------------------|
|---------------------------------------------------------------------------|
    x x x x x x x   x x x
|0~~0-0-0-0-0-0-0---0-0-0-1p0-0-4--4-4-4-4-4-4-4-0--4-0---3-1-0-------------|
|0~~0-0-0-0-0-0-0---0-0-0-1p0-0-4--4-4-4-4-4-4-4---3----2-----0-------------|
|0~~0-0-0-0-0-0-0---0-0-0-1p0-0-4--4-4-4-4-4-4-4--------------0-------------|
|---------------------------------------------------------------------------|
|---------------------------------------------------------------------------|
|---------------------------------------------------------------------------|

    x x x x x x x   x x x
|0~~0-0-0-0-0-0-0---0-0-0-1p0-0-4--4-4-4-4-4-4-4-0--4-0---3-1-0-------------|
|0~~0-0-0-0-0-0-0---0-0-0-1p0-0-4--4-4-4-4-4-4-4---3----2-----0-------------|
|0~~0-0-0-0-0-0-0---0-0-0-1p0-0-4--4-4-4-4-4-4-4--------------0-------------|
|---------------------------------------------------------------------------|
|---------------------------------------------------------------------------|
|---------------------------------------------------------------------------|

 x   (Whatever the pattern is)
|1--------------------------------------------------------------------------|
|0--------------------------------------------------------------------------|
|0--------------------------------------------------------------------------|
|---------------------------------------------------------------------------|
|---------------------------------------------------------------------------|
|---------------------------------------------------------------------------|
                xxxxxxx  x  x
|0----0----0----1111111--1--1-----------------------------------------------|
|0----0----0----0000000--0--0-----------------------------------------------|
|0----0----0----0000000--0--0-----------------------------------------------|
|------------------repeat(x2) then repeat last two sections-----------------|
|---------------------------------------------------------------------------|
|---------------------------------------------------------------------------|

(oh...so...well.)
 x    x    x    xxxxxxx  x  x
|0----0----0----0000001--1--1-----------------------------------------------|
|0----0----0----0000000--0--0-----------------------------------------------|
|0----0----0----0000000--0--0-----------------------------------------------|
|------------------repeat(x4)-----------------------------------------------|
|---------------------------------------------------------------------------|
|---------------------------------------------------------------------------|

 x    x    x    xxxxxxx  x  x
|1----1----1----1111111--1--1-----------------------------------------------|
|0----0----0----0000000--0--0-----------------------------------------------|
|0----0----0----0000000--0--0-----------------------------------------------|
|------------------repeat(x7)-----------------------------------------------|
|---------------------------------------------------------------------------|
|---------------------------------------------------------------------------|

                xxxxxxx  x  x
|0----0----0----0000000--0--0-----------------------------------------------|
|0----0----0----0000000--0--0-----------------------------------------------|
|0----0----0----0000000--0--0-----------------------------------------------|
|------------------repeat(x4)-----------------------------------------------|
|---------------------------------------------------------------------------|
|---------------------------------------------------------------------------|

|0~~------------------------------------------------------------------------|
|0~~------------------------------------------------------------------------|
|0~~--------10---10--------10---10------------------------------------------|
|-----9h10p9--------9h10p9---------12---------------------------------------|
|-------------------------------------reoeat (x2)---------------------------|
|---------------------------------------------------------------------------|

|8~~------------------------------------------------------------------------|
|8~~------------------------------------------------------------------------|
|8~~--------10---10--------10---10------------------------------------------|
|-----9h10p9--------9h10p9---------12---------------------------------------|
|---------------------------------------------------------------------------|
|---------------------------------------------------------------------------|

|10~~-----------------------------------------------------------------------|
|10~~-----------12-10-13----------------------------------------------------|
|10~~--------10----------12-15----------------------------------------------|
|-----9h10p9-------------------14-15----------------------------------------|
|------------------------------------14-------------------------------------|
|---------------------------------------12----------------------------------|
 xxx            xxx
|000------------000---------------------------------------------------------|
|000------------000---------------------------------------------------------|
|000---------10-000--------10-----------------------------------------------|
|-----9h10p9--------9h10p9----12-10-9-10------------------------------------|
|-------------------------------------reoeat (x2)---------------------------|
|---------------------------------------------------------------------------|

 xxx            xxx
|888------------888---------------------------------------------------------|
|888------------888---------------------------------------------------------|
|888---------10-888--------10-----------------------------------------------|
|-----9h10p9--------9h10p9----12-10-9-10------------------------------------|
|---------------------------------------------------------------------------|
|---------------------------------------------------------------------------|
 x x x
|101010---------------------------------------------------------------------|
|101010----------12-10-13---------------------------------------------------|
|101010-------10----------12-15---------------------------------------------|
|-------9h10p9------------------14-15---------------------------------------|
|-------------------------------------14------------------------------------|
|----------------------------------------12---------------------------------|

Repeat this section once more.

 Whatever the pattern is.
|0-----------------------8--5--7--3--5-2------------------------------------|
|0--------------------------------------------------------------------------|
|0--------------------------------------------------------------------------|
|---------------------------------------------------------------------------|
|---------------------------------------------------------------------------|
|---------------------------------------------------------------------------|
Ending breakdown
 ^ x x           ^ x x   ^ x xxxx^ x x
|1-1-1-----------1-1-1---1-1-11111-1-1--------------------------------------|
|--0-0-------------0-0-----0-0000--0-0--------------------------------------|
|--0-0-------------0-0-----0-0000--0-0--------------------------------------|
|---------------------------------------------------------------------------|
|---------------------------------------------------------------------------|
|---------------------------------------------------------------------------|

http://www.facebook.com/home.php#!/pages/Beneath-The-Veil/150643321618084
check us out!
Tap to rate this tab
 
# A B C D E F G H I J K L M N O P Q R S T U V W X Y Z