Song name
# A B C D E F G H I J K L M N O P Q R S T U V W X Y Z

Benedict Cumberbatch - Cant Keep It Inside tab

-----------------------------------------------------------------------------
 Can't Keep It Inside - Benedict Cumberbatch, August: Osage County Soundtrack
-----------------------------------------------------------------------------
Tabbed by: A.C. Morris
E-mail: acmorris1991@gmail.com

Capo on 3rd fret

Tuning:
Tune the low E string up one half step to F and then don't worry about barring the
F chords - makes it a bit easier. (So, F A D G B e)
All chord positions standard

Basic Chord Progression:

Intro: C (x4)
Verse: F G C C (x2)
       E E F Am
       C F G C

Picking as I've worked out:

Intro:
 C
e|----------------|----------------|----------------|----------------|
B|1--------------0|1--------------0|1--------------0|1--------------0|
G|0---0---0---0---|0---0---0---0---|0---0---0---0---|0---0---0---0---|
D|----2---2---2---|----2---2---2---|----2---2---2---|----2---2---2---|
A|3---------------|3---------------|3---------------|3---------------|
F|----------------|----------------|----------------|----------------|

Verses:
 F                G                C
e|1---------------|3---------------|0---------------|----------------|
B|1--------------1|3--------------3|1--------------0|1--------------0|
G|2---2---2---2---|0---0---0---0---|0---0---0---0---|0---0---0---0---|  x2
D|----0---0---0---|----0---0---0---|----2---2---2---|----2---2---2---|
A|----------------|----------------|3---------------|3---------------|
F|0---------------|2---------------|----------------|----------------|

 I've............. man............. words.............................

 Nothing.......... say............. heard.............................


  E                                F         G       Am
e|0---------------|0---------------|1--------3-------|0---------------|----------------|
B|0--------------0|0--------------0|1------1-3------3|1--------------0|1-------------0-|
G|1---1---1---1---|1---1---1---1---|2---2----0---0---|2---2---2---2---|2---2---2---2---|
D|----2---2---2---|----2---2---2---|----0--------0---|----2---2---2---|----2---2---2---|
A|2---------------|2---------------|-----------------|0---------------|0---------------|
F|----------------|----------------|0--------2-------|----------------|----------------|

I'll.............. love............ rest.... of my... life.............................


 C                F         G       C
e|0---------------|1--------3-------|0---------------|----------------|
B|1--------------0|1------1-3------3|1--------------0|1---------------|
G|0---0---0---0---|2---2----0---0---|0---0---0---0---|0---0---0---0---|
D|----2---2---2---|----0--------0---|----2---2---2---|----2---2---2---|
A|3---------------|-----------------|3---------------|3---------------|
F|----------------|0--------2-------|----------------|----------------|

 feeling........... can't... it..... inside............................

                                         e|
                                         B|1
Last time: repeat last line and end on:  G|0
                                         D|
                                         A|3
                                         E|


      F                 G           C     C
Well, I've never been a man of many words

            F             G                    C     C
And there's nothing I can say that you haven't heard

E                  E                   F  G  Am
 But I'll sing you love songs 'til the day I die

              C          F          G    C    C
Because, this feeling, I can't keep it inside



            F                  G                   C   C
I'll sing a sweet serenade whenever you're feeling sad

      F            G                      C    C
And a lullaby each night before you go to bed

E             E           F    G       Am
 I'll sing to you for the rest of your life

            C          F          G    C     C
The way I'm feeling, I can't keep it inside

     F          G    C     C
No I can't keep it inside
Tap to rate this tab
# A B C D E F G H I J K L M N O P Q R S T U V W X Y Z