Guitaretab - guitar tabs
Song name
# A B C D E F G H I J K L M N O P Q R S T U V W X Y Z

Benediction - Unfound Mortality tab

                 Unfound Morality by Benediction
			    from "TRANSCEND THE RUBICON"-----
Tune down 1 step (whole guitar)
.=palm mute *=Artificial Harmonic

Riff A =FAST!!!
|--------------|
|--------------|
|--------------|Guitar 1&2
|--------------|
|--------------|
|-02233667876-|
|              |
|--------------|
|--------------|
|--------------|
|-2----8-------|Background guitar
|-2----8-------|
|-0----6-------|

Riff B (no bass) 
|----------------------------|
|----------------------------|
|----------------------------|Guitar 1 
|----------------------------|
|----------------------------|
|-3'----6'----2'--3'---------|
|                            |
|----------------------------|
|----------------------------|
|----------------------------|
|------------------\\\\\\\\\-| Guitar 2
|------------------\\\\\\\\\-|
|------------------\\\\\\\\\-|
a descending hand scrape w/feedback

Riff C-very hard to hear, only happens once, and very quickly 
|--------------------------|
|--------------------------|
|--------------------------|
|--------------------------|guitar 1&2
|--------------------------|
|-3'----6'----2'--3'-2'-1'-|

Riff D   
|---------------------------------------|
|---------------------------------------|
|---------------------------------------|
|---------------------------------------|Guitar 1&2
|---------------------------------------|
|-3'----6'----2'--3'----3'----6'--7'-2'-|

back to riff A x 8
                    Riff E 
|---------------------------------------------------|
|---------------------------------------------------|
|---------------------------------------------------|
|---------------------------------------------------|
|---------------------------------------------------|
|-333333336665552222222222-333333333666555777777777-|
|                      guitar 1&2                   |
|                                                   |
|---------------------------------------------------|
|---------------------------------------------------|
|---------------------------------------------------|
|-5-------8--7--4----------5--------8--7--9---------|Background Guitar
|-5-------8--7--4----------5--------8--7--9---------|
|-3-------6--5--2----------3--------6--5--7---------|
[ Tab from: http://www.guitaretab.com/b/benediction/36070.html ]
Riff F 
|---------------------------------------------------|
|---------------------------------------------------|
|---------------------------------------------------|
|---------------------------------------------------|All guitars
    
|-5-------8--7--4----------5--------8--7--9---------|
|-3-------6--5--2----------3--------6--5--7---------|

Riff F2 FAST!!!!!!!
|---------|
|---------|
|---------|
|---------|
|-5-4-3-2-|
|-3-2-1-0-|
  . . . .
Riff G-the part that sounds like a totally different song =)
      relaxed feel                  
|---------------------------------------|
|---------------------------------------|
|---------------------------------------|
|---------------------------2~*-----3~*-|guitar 1
|----2---3---5---3---2------------------|
|-000-000-000-000-000--00000---00000----|
| ... ... ... ... ...  .....   .....    |
|                                       |
|---------------------------------------|
|---------------------------------------|
|---------------------------------------|
|----------------------22222---22222----|guitar 2
|----------------------22222---22222----|
|----------------------00000---00000----|
                       .....   .....
continuation of riff
|-----------------------------------------|
|-----------------------------------------|
|-----------------------------------------|
|-----------------------------2~*-----3~*-|guitar 1
|----2---3---5---3h5p3-2------------------|
|-000-000-000-000--------00000---00000----|
| ... ... ... ...        .....   .....    |
|                                         |
|-----------------------------------------|
|-----------------------------------------|
|-----------------------------------------|not quite sure about this:(
|-2----------------------8-------4--------|guitar 2
|-2----------------------8-------4--------|
|-0----------------------6-------2--------|
  .                    

Riff H
|------------------------|
|------------------------|
|------------------------|Guitar 1
|------------------------|
|-5------2-------5------8|
|-3------0-------3------6|

Riff I
|------------------|
|------------------|
|------------------|
|------------------|Guitar 1 ---Guitar 2 plays solo
|------------------|
|-3'----6'-7'---2'-|

ORDER!
Riff A (x4)
Riff B (x1)
Riff C (x1)
Riff D (x4)
Riff A (x8)
Riff E (x2)
Riff F2(x1)
Riff F (x2)
Riff F2(x1)
Riff F (x2)
Riff G (x1)
Riff G,(x4)w\both guitars playing guitar 1 part.
13 seconds of feedback w/drums
Riff H (x1)
Riff F2(x1)
Riff E (x1)
Riff I (x4)Under solo
Riff A (x8)
end (whew!)
Corrections, comments (since I'm probably way off!)-Jeff Peters
Related for Unfound Mortality tab
Unfound Mortality chords by Benediction