Guitaretab - guitar tabs
Song name
# A B C D E F G H I J K L M N O P Q R S T U V W X Y Z

Benediction - Senile Dementia tab

				BENEDICTION - Senile Dementia
				From MASTER OF BRUTALITY
				Version 1.0 Martch 2002

Transcribed by: Vincent

For Questions, Comments, Newest Version, or Corrections contact
 Phil: at gerbeoflife@aol.com

.  - palm mute          /  - slide up to
 \  - slide down to      ~  - vibrato
 h  - hammer on          b  - bend
 p  - pull off            Suffixes for bend
                          ph - pinch harmonic
                           f - full bend    h - half bend
*  - see comment           r - release      t - tap bend
X  - percussion mute       ~ - vibrato bend
@  - slight palm mute     () - Hold note until next note
" - Tremolo until next note
' - Slower Tremolo until next note

Tune Gtr to B

Riff 1:
|-----------------|
|-----------------|
|-----------------|
|-9-8-----8-7-----|
|-7-6-9-8-6-5-8-7-|
|-----7-6-----6-5-|

Riff 2:
|----------------------------------|
|----------------------------------|
|----------------------------------|
|-------------66665555999988889999-|
|-44446666555544443333777766667777-|
|-222244443333---------------------|

Riff 3a:
|----------------------------------|
|----------------------------------|
|----------------------------------|
|-----10-------9-------8-----------|
|-8888---888888--888888-8899998888-|
|----------------------------------|

Riff 3b:
|---------------------------------|
|---------------------------------|
|---------------------------------|
|-----8-------7-------6-----------|
|-6666--666666--666666-6677776666-|
|---------------------------------|

Riff 4:
|--------------------------------------|
|--------------------------------------|
|--------------------------------------|
|-7....11-10....----------10-9....-----|
|-5....9--8.....-10-9....-8--7....-6-7-|
|----------------8--7....----------4-5-|

Break:
|--------------------------------------|
|--------------------------------------|
|--------------------------------------|
|--------------------------------------|
|-5-------6-------5-------6----7-7-6-5-|
|-3--/x\--4--/x\--3--/x\--4----5-5-4-3-|

Order Song :
Riff 1 x 2
Riff 2 x 4
Riff 3a x2
Riff 3b x 2
Riff 3a x2
Riff 2 x 4
Riff 3a x2
Riff 3b x 2
Riff 3a x2
Riff 4 x 6
Riff 2 x 4
Riff 3a x2
Riff 3b x 2
Riff 3a x2
Break 
Riff 2 x 4
Riff 3a x2
Riff 3b x 2
Riff 3a x2
Riff 2 x 4
End
[ Tab from: http://www.guitaretab.com/b/benediction/36071.html ]
Related for Senile Dementia tab
Senile Dementia chords by Benediction