Song name
# A B C D E F G H I J K L M N O P Q R S T U V W X Y Z

Benediction - Nothing On The Inside tab

Help us improve GuitareTab! Take a short survey!
Author/Artist: Benediction
Title: Nothing On The Inside
Album: Organised Chaos - 2001
Transcribed by: Son Of Northern Darkness
Email: felipecepollini@hotmail.com
Date: 30/July/2002
01, 02, 03/August/2002

. palm mute
= let ring
x play the note and hold

 INTRO
|-----------------------------------------------------------------|
|-----------------------------------------------------------------|
|-----------------------------------------------------------------|
|-----------------------------------------------------------------|Guitar 1
|-2-----4-5-----7-8-------4-5-4---2-----4-5-----7-8-------2-2-2-2-|
|-0-0-0-2-3-0-0-5-6-0-0-0-2-3-2---0-0-0-2-3-0-0-5-6-0-0-0-0-0-0-0-|
|   . .	    . .     . . .           . .             . . . . . . . |
|								  |
|-----------------------------------------------------------------|
|-----------------------------------------------------------------|
|-----------------------------------------------------------------|
|-----------------------------------------------------------------|Guitar 2
|-2x----------------------------------------------------5-5-3-5-3-|
|-0x----------------------------------------------------3-3-1-3-1-|
                                                                    
|--------------------------------------------------------------|
|--------------------------------------------------------------|
|--------------------------------------------------------------|
|--------------------------------------------------------------|Guitar 1
|-2-----4-5-----7-8-------4-5-4---2-----4-5-----7-8-7--5-7-5-4-|
|-0-0-0-2-3-0-0-5-6-0-0-0-2-3-2---0-0-0-2-3-0-0-5-6-5--3-5-3-2-|
|   . .     . .     . . .           . .     . .		       |
|							       |
|--------------------------------------------------------------|
|--------------------------------------------------------------|
|--------------------------------------------------------------|
|--------------------------------------------------------------|Guitar 2
|-2=------------------------------2x----------------7--5-7-5-4-|
|-0=------------------------------0x----------------5--3-5-3-2-|
                                                                

 VERSE
|-----------------------------------------------------------------|
|-----------------------------------------------------------------|
|-----------------------------------------------------------------|
|-----------------------------------------------------------------|
|-2-----4-5-----7-8-------4-5-4---2-----4-5-----7-8-------2-2-2-2-|
|-0-0-0-2-3-0-0-5-6-0-0-0-2-3-2---0-0-0-2-3-0-0-5-6-0-0-0-0-0-0-0-|
    . .     . .     . . .           . .     . .     . . . . . . .           
 
 CHORUS
|------------------------------------------------------------------|
|------------------------------------------------------------------|
|------------------------------------------------------------------|
|------------------------------------------------------------------|
|-222222222222-----------------------------------------------------|
|-------------5555444444444444444422222222222244554444444444444444-|
  ................................................................
                                                                    
 INTERLUDE           Only in the end of the song.
|------------------|-------------------------------|
|------------------|-------------------------------|
|------------------|-------------------------------|
|------------------|-------------------------------|
|-2-2---2----------|-2-2---------------------------|
|-0-0---0-11113343-|-0-0---------------------------|
          ........                                  

 "No more questions, no more rules..."
|------------------------------------------------------------------|
|------------------------------------------------------------------|
|--Missing---------------------------------------------------------|
|--part------------------------------------------------------------|
|------------------------------------------------------------------|
|------------------------------------------------------------------|



Well, that's it.
It's an easy song to get the rhythm and songstructure, 
just listen to the song.

I have this song recorded in K7, and due to the low quality of the
recording, there's a part in the song (this "riff" above) that's was 
impossible to tab. Some parts might be wrong. 
So, sugestions, comments or anything, mail me.
Related for Nothing On The Inside tab