Guitaretab - guitar tabs
Song name
# A B C D E F G H I J K L M N O P Q R S T U V W X Y Z

Benjamin Biolay - Los Angeles tab

The Rosewood Thieves- Los Angeles

Capo II
Intro
E|--------------------------------------------------3---2---|
B|---------------------------------1111-------------3---2---|
G|---------------------------------2222-------------5---4---|
D|------------2222---2---0---------2222-------------5---4---|
A|---0---2----2222------------2-----------0---2-----3---2---|
E|---------------------------------------------------3---2--|


E
It's been so long since I've seen her around here
Am
I can't remember if she's real
E
Summer days spent walking around
E
And up all night yeah
Am
Trying to remember if she's real

E|---3---2---|
B|---3---2---|
G|---5---4---|
D|---5---4---|
A|---3---2---|
E|---3---2---|…she’s real
[ Tab from: http://www.guitaretab.com/b/benjamin-biolay/120501.html ]
C			G		C	G
Well I don't think that I'll be back before nine
C		G		Am
It might be nine, West Coast time
C			G
Well I got some friends in LA
C		D
Telling me to head out their way
C		G			Am
'Cause they know I'm in love with the sun

Since the first time I set a glance
On you yeah
I-I knew that she's real
So will that bird that flew you fly you back to yeah
So I'll-I'll know that she's real

Well I don't think that I'll be back before nine
It might be nine, West Coast time
Well I got some friends in LA
Telling me to head out their way
'Cause they know I'm in love with the sun

'Cause she's real
'Cause she's real
'Cause she's real
'Cause she's real

Well I got some friends in LA
Telling me to head out their way
'Cause they know I'm in love with the sun

Well I got some friends in LA
Telling me to head out their way
'Cause they know I'm in love with the sun


tabbed by sandy smith

Related for Los Angeles tab