Benjamin Francis Leftwich - Atlas Hands tab

standard tuning capo 4


  verse

e-----------------------2------------5-------------5--------|
B--------3----------------3---3--------3---3---------3---3--|
G----------4---4------2-----2------2-----2------2------2----|
D------4-----4------0------------0------------0-------------|
A----2------------------------------------------------------|
E-----------------------------------------------------------|

e-----------------------0------------5-------------5--------|
B--------3----------------3---3--------3---3---------3---3--|
G----------4---4------2-----2------2-----2------2------2----|
D------4-----4------0------------0------------0-------------|
A----2------------------------------------------------------|
E-----------------------------------------------------------|


chorus 

Bmin-D-D-A 

A is played like this: 

0---0-0-0-| 
0-2-2-2-0-|
2---2-2-2-|
2---2-2-2-|
0---0-0-0-|

solo after the chorus

e--------------5---------------------5----5---|
B--7-3---0-3-----3---0-3---7-3--0-3----3----3-|
G---------------------------------------------|
D---------------------------------------------|
A---------------------------------------------|
E---------------------------------------------|

the chorus is repeated for the outro

im not sure if this is quite right but it's about as good as i can make it. brilliant song anyway
Tap to rate this tab
 
# A B C D E F G H I J K L M N O P Q R S T U V W X Y Z