Benjamin Francis Leftwich - Pictures tab

Pictures - Benjamin Francis Leftwich

I spent a little while listening to the track at a slowed down tempo to work out the 
correct notes. It's a great song and I hope you enjoy it!

Capo: 6th Fret


Intro/Verse/Bridge

e|------------------------|------------------------|------------------------|
B|----3-----------3-------|----3-----------3-------|----0-----------0-------|
G|----------0-----------0-|----------0-----------0-|----------0-----------0-|
D|------------------------|------------------------|------------------------|
A|-3-----3-----3-----3----|-2-----2-----2-----2----|------------------------|
E|------------------------|------------------------|-0-----0-----0-----0----|

e|------------------------|
B|----3-----3-----3-------|
G|----4-----2-----0-----0-|
D|-0-----0-----0-----0----|
A|------------------------|
E|------------------------|


Chorus

e|------------------------|------------------------|------------------------|
B|----3-----------3-------|----3-----------3-------|----0-----------0-------|
G|----------2-----------2-|----------0-----------0-|----------0-----------0-|
D|------------------------|------------------------|------------------------|
A|-0-----0-----0-----0----|-2-----2-----2-----2----|------------------------|
E|------------------------|------------------------|-0-----0-----0-----0----|

e|------------------------|
B|----3-----3-----3-------|
G|----4-----2-----0-----0-|
D|-0-----0-----0-----0----|
A|------------------------|
E|------------------------|


Outro

e|------------------------|------------------------|------------------------|
B|----3-----------3-------|----3-----------3-------|----0-----------0-------|
G|----------0-----------0-|----------0-----------0-|----------0-----------0-|
D|------------------------|------------------------|------------------------|
A|-3-----3-----3-----3----|-2-----2-----2-----2----|------------------------|
E|------------------------|------------------------|-0-----0-----0-----0----|

e|------------------------|------------------------|
B|----3-----3-----3-------|------------------------|
G|----4-----2-----0-----0-|------------------------|   Let the last note
D|-0-----0-----0-----0----|------------------------|   ring out...
A|------------------------|-3----------------------|
E|------------------------|------------------------|


Song Structure

Intro  x2

Verse  x8

Chorus x2

Bridge x1

Verse  x4

Chorus x4

Verse  x3

Outro  x1


Tabbed by: Seb Sear 30.07.2011
Tap to rate this tab
 
# A B C D E F G H I J K L M N O P Q R S T U V W X Y Z