Song name
# A B C D E F G H I J K L M N O P Q R S T U V W X Y Z

Benjamin Francis Leftwich - See You Soon tab

Artist: Benjamin Francis Leftwich
Song: See You Soon
Album: Pictures (EP)
Tuning: Standard

Enjoy! (Not 100% confident with the chorus though)


Intro

e|------3-3----3-3----3-3----3-3----3-3----3-3----3-3----3-3----------| 
B|------3-3----3-3----3-3----3-3----3-3----3-3----3-3----3-3----------| 
G|----0------0--------------------------------------------------------|    
D|------------------0------0------2------2-------0------0-------------|    X2
A|--------------------------------------------------------------------| 
E|--------------------------------------------------------------------|


Verse
                    
e|------3-3----3-3----3-3----3-3----3-3----3-3----3-3----3-3----------| 
B|------3-3----3-3----3-3----3-3----3-3----3-3----3-3----3-3----------| 
G|----0------0--------------------------------------------------------|    
D|------------------0------0------2------2-------0------0-------------|    
A|--------------------------------------------------------------------| 
E|--------------------------------------------------------------------|

                   
e|------0-0----0-0----2-2----2-2----| 
B|------3-3----3-3----3-3----3-3----| 
G|----------------------------------|    
D|------------------0------0--------|  X4 
A|----3------3----------------------| 
E|----------------------------------|


Bridge


e|------3-3----3-3----3-3----3-3----| 
B|------3-3----3-3----3-3----3-3----| 
G|----0------0------0------0--------|    
D|----------------------------------|   
A|----------------------------------| 
E|----------------------------------|

Chorus
                    
e|------0-0----0-0----0-0----0-0----0-0----0-0----0-0----0-0----------| 
B|------3-3----3-3----3-3----3-3----3-3----3-3----3-3----3-3----------| 
G|--------------------------------------------------------------------|    
D|---------------------------------0------0---------------------------|    X4
A|----3------3--------------------------------------------------------| 
E|-------------------3------3---------------------0-----2-3-----------|



Tap to rate this tab
 
# A B C D E F G H I J K L M N O P Q R S T U V W X Y Z