Song name
# A B C D E F G H I J K L M N O P Q R S T U V W X Y Z

Benjamin Francis Leftwich - Atlas Hands tab

standard tuning capo 4

verse/intro
    Bm              D             G           G
e----------------------------2------------5--------------5--------|
B----------3---------------3----3--------3---3---------3----3-----|
G--------4----4----------2-------2------0-----0------0--------0---|
D------4-------4------0-------------------------------------------|
A----2------------------------------------------------------------|
E-------------------------------------3------------3--------------|


chorus 

     Em               G               D            A 

e-----------------------------------------2-----------------------|
B----------0---------------3-------------3---3-----------2--------|
G--------0----0-----------0---0---------2------2-------2----2-----|
D------2--------0--------0------0-----0--------------2--------2---|
A--------------------------------------------------0--------------|
E----0----------------3-------------------------------------------|

'solo' arpeggio after each chorus

    Bm                D         G               G
e----2------------------------2-----5-------5--------5---- -5-------|
B--------3-----------------3-----------3-------3--------3------3----|
G-----------4-----------2-----------------0------0--------0-------0-|
D-----------------------0-0--0--------------------------------------|
A----2-2--2---2-----------------------------------------------------|
E-----------------------------------3-3-3--3-3--3----3-3-3-3-3--3---|
Tap to rate this tab
# A B C D E F G H I J K L M N O P Q R S T U V W X Y Z