Song name
# A B C D E F G H I J K L M N O P Q R S T U V W X Y Z

Benjamin Francis Leftwich - More Than Letters tab

Tuning: standard
no capo

This is one of the most relaxing tunes to play once you get it right.

verse

e|-----------------------------------------------|
B|-----------------------------------------------|
G|-------------0-----------0---------0-----------|
D|----------4--------4---------------------------|
A|-------5----------------------5---------5------|
E|-3--3-----------3-----3----3----3----3---------|

e|-----------------------------------------------|
B|-------------------0---------------------------|
G|-------------0-----------0---------0-----------|
D|----------4-------------------4----------------|
A|-------5--------------------------------5------|
E|-3--3-----------3-----3----3----3----3---------|

e|-----------------------------------------------|
B|-----------------------------------------------|
G|-------------0-----------0---------0-----------|
D|----------4--------4---------------------------|
A|-------5----------------------5---------5------|
E|-0--0-----------0-----0----0----0----0---------|

e|-----------------------------------------------|
B|-------------------0---------------------------|
G|-------------0-----------0---------0-----------|
D|----------4-------------------4----------------|
A|-------5--------------------------------5------|
E|-0--0-----------0-----0----0----0----0---------|

Chorus

e|-------------------0-----------------------------|
B|----------3-----------3-----------3-----------3--|
G|-------0-----------------------0-----------0-----|
D|----0-----------0-----------0-----------0--------|
A|-3-----------2-----------0-----------------------|
E|-------------------------------------0-----------|

Outro just repeats the verse and chorus.
Tap to rate this tab
 
# A B C D E F G H I J K L M N O P Q R S T U V W X Y Z