Song name
# A B C D E F G H I J K L M N O P Q R S T U V W X Y Z

Benjamin Francis Leftwich - Last Smoke Before The Snowstorm tab

LAST SMOKE BEFORE THE SNOWSTORM - Benjamin Francis Leftwich
-----------------------------------------------------------

Tuning: D-A-D-F#-A-E

Main Riff (used on Verse and Chorus)

E |-------------------------------------------------------------------------|
A |-------0-------------0-----------0---------------------------------------|
F#|----10---10-------10---10-----10------12----10---------------------------|
D |-11-----------11-------------------11----11----11------------------------|
A |-0------------11---------------------------------------------------------|
D |---------------------------0---------------------------------------------|

Riff leading into Chorus

E |-------------------------------------------------------------------------|
A |-------0-------------0-----------0---------------------------------------|
F#|----10---10-------10---10-----10------10----10----12----12----10----10---|
D |-11-----------11-------------------11----11----11----11----11----11----11|
A |-0------------11---------------------------------------------------------|
D |---------------------------0---------------------------------------------|

Last 2 lines (this is just the start...)

E |---0-------0-------0-----------------------------------------------------|
A |---0-------0-------0-----------------------------------------------------|
F#|---10------10------10---------x4-----------------------------------------|
D |---11------11------11----------------------------------------------------|
A |---0-------11------0-----------------------------------------------------|
D |-------------------0-----------------------------------------------------|


This is just the start, you've got a cold heart
Don't you wanna spend more time around here?

I ran out through the garden, ended up by your home
With broken arms and stolen charms
I knew you weren't alone

Don't you love me yeah, don't you wanna be my sky
If you trust me yeah, we won't ever have to fight

We are not departed from the place in which we started
We just got up on the bridge so we could see it glow

The things that we have left in
The cities which we slept in 
The coming of the winter on the fields

Don't you love me yeah, don't you wanna be my sky
If you trust me yeah, we won't ever have to fight

This is just the start, you've got a cold heart
Don't you wanna spend more time, around here
Tap to rate this tab
 
# A B C D E F G H I J K L M N O P Q R S T U V W X Y Z