Song name
# A B C D E F G H I J K L M N O P Q R S T U V W X Y Z

Benjamin Francis Leftwich - Pictures tab

Pictures by Benjamin Francis Leftwich 

Tab by Archie Hinde

This is my first tab so be nice.. its an absolute tune by ben, standard tuning and 
capo on the 6th fret. 

Intro and Verse 

e|------------------------|------------------------|------------------------|
B|----3-----------3-------|----3-----------3-------|----3------------3------|
G|----------0-----------0-|----------0-----------0-|----------0-----------0-|
D|-------2-----------2----|-------0-----------0----|-------2-----------2----|
A|-3-----------3----------|-2-----------2----------|------------------------|
E|------------------------|------------------------|-0-----------0----------|

e|------------------------|
B|-3--3-----3-----3-----3-|
G|-2--4-----2-----0-----0-|
D|-------0-----0-----0----|
A|------------------------|
E|------------------------|


Chorus 


e|------------------------|------------------------|------------------------|
B|----3-----------3-------|----3-----------3-------|----3-----------3-------|
G|-2--------2-----------2-|----------0-----------0-|----------0-----------0-|
D|-------0-----------0----|-------0-----------0----|-------2-----------2----|
A|-0-----------0----------|-3-----------3----------|------------------------|
E|------------------------|------------------------|-0-----------0----------|

e|------------------------|
B|-3--3-----3-----3-----3-|
G|-2--4-----2-----0-----0-|
D|-------0-----0-----0----|
A|------------------------|
E|------------------------|


Ending, so same as main verse but finish on this

e|------------------------|------------------------|------------------------|
B|----3-----------3-------|----3-----------3-------|----3------------3------|
G|----------0-----------0-|----------0-----------0-|----------0-----------0-|
D|-------2-----------2----|-------0-----------0----|-------2-----------2----|
A|-3-----------3----------|-2-----------2----------|------------------------|
E|------------------------|------------------------|-0-----------0----------|

e|-------------------------------|
B|-3--3-----3-----3-----3----3---|
G|-2--4-----2-----0-----0----0---|
D|-------0-----0-----0-----------|
A|-------------------------------|
E|---------------------------3---|
Tap to rate this tab
 
# A B C D E F G H I J K L M N O P Q R S T U V W X Y Z