Song name
# A B C D E F G H I J K L M N O P Q R S T U V W X Y Z

Benjamin Francis Leftwich - Dont Go Slow tab

-------------------------------------------------------------------------------
                             Don't Go Slow - Benjamin Francis Leftwich
-------------------------------------------------------------------------------
Tabbed by: MarshallAn

Hi, this is a tab for Don't Go Slow by Benjamin Francis Leftwich. This is the way he 
plays it, as I have seen and heard from videos. Pretty sure it's accurate. Please note capo 
and tuning. Strum tabbed chords for their duration in the song. Listen for the changes.

Tuning:DF#DGAD Capo 2

Verse and Intro Chord Progression

e|--0-----------0--------------0---------0----------0------------------------|
B|--0-----------0--------------0---------0----------0------------------------|
G|--11----/-----6------/-------4---------4\6--------11-----------------------|
D|--0-----------0--------------0---------0----------0------------------------|
A|--12----/-----7------/-------5---------5\7--------12-----------------------|
E|--12----/-----7------/-------5---------5\7--------12-----------------------|

e|--0-----------0--------------0--------------------------0---------------0--|
B|--0-----------0--------------0--------------------------0---------------0--|
G|--11----/-----6------/-------4-------------------------4\6--------------11-|
D|--0-----------0--------------0--------------------------0-------------- 0--|
A|--12----/-----7------/-------5-------------------------5\7--------------12-|
E|--12----/-----7------/-------5-------------------------5\7--------------12-|
 Don't       go            slow, you'll miss all the things that you need etc. (repeat 
as necessary)


Chorus
e|------0-----------------------0------------------------------0-------------|
B|------0-----------------------0------------------------------0-------------|
G|------2-----------------------2------------------------------4-------------|
D|------0-----------------------0------------------------------0-------------|
A|------5-----------------------3------------------------------5-------------|
E|------0-----------------------0------------------------------5-------------|
If my bones      were        wrapped                      around you etc. (repeat as necessary)

End on:
e|---0-----|
B|---0-----|
G|---2-----|
D|---0-----|
A|---5-----|
E|---0-----|


Enjoy! Listen to the song to learn the strumming and chord changes.


************************************

| /   slide up
| \   slide down
| h   hammer-on
| p   pull-off
| ~   vibrato
| +   harmonic
| x   Mute note
| b   Bend
| pb  Pre-bend
| br  Bend release
| pbr Pre-bend release
| brb Bend release bend

************************************
Tap to rate this tab
# A B C D E F G H I J K L M N O P Q R S T U V W X Y Z