Song name
# A B C D E F G H I J K L M N O P Q R S T U V W X Y Z

Benjamin Francis Leftwich - Pictures tab

Benjamin Francis Leftwich - Pictures

tabbed by David van der Gulik
    
I had seen the other tabs. And although they were getting better, I felt that
the details weren't quite right, especially the last line from the chorus.
This is my best shot.

         !Capo at 6th fret!

Intro/verse/bridge:

e|------------------|------------------|------------------|     
B|----3-------3-----|----3-------3-----|----3-------3-----|     
G|--------0-------0-|--------0-------0-|--------0-------0-|   
D|------2-------2---|------0-------0---|------2-------2---|     
A|--3-------3-------|--2-------2-------|------------------|     
E|------------------|------------------|--0-------0-------|     

e|------------------|
B|----3-------3-----|
G|--2-4---2---0---0-|
D|--0---0---0---0---|
A|------------------|
E|------------------|


Chorus:

e|------------------|------------------|------------------|
B|----3-------3-----|----3-------3-----|----3-------3-----|
G|--2-----2-------2-|--------0-------0-|--------0-------0-|
D|------2-------2---|------2-------2---|------2-------2---|
A|--0-------0-------|--3-------3-------|------------------|
E|------------------|------------------|--0-------0-------|

e|------------------|
B|----3-------3-----|
G|--2-4---2---0---0-|
D|--0---0---0---0---|
A|------------------|
E|------------------|


Outro:

e|------------------|------------------|------------------|
B|----3-------3-----|----3-------3-----|----3-------3-----|
G|--------0-------0-|--------0-------0-|--------0-------0-|
D|------2-------2---|------0-------0---|------2-------2---|
A|--3-------3-------|--2-------2-------|------------------|
E|------------------|------------------|--0-------0-------|

e|------------------|------------------|
B|----3-------3-----|------------------|
G|--2-4---2---0---0-|------------------|
D|--0---0---0---0---|------------------|
A|------------------|------------------|
E|------------------|--3---------------| Let the last note ring!


Structure:

intro  2x
verse  8x
chorus 2x
bridge 1x
verse  4x
chorus 4x
verse  3x
outro  1x
Tap to rate this tab
# A B C D E F G H I J K L M N O P Q R S T U V W X Y Z