Song name
# A B C D E F G H I J K L M N O P Q R S T U V W X Y Z

Benjamin Francis Leftwich - Break The Day Open tab

Artist: Benjamin Francis Leftwich
Song:   Break The Day Open
Album:  In The Open (EP)
Tabbed: Sam Powell

Tuning: EADGBE
Capo:   8th (7th live)
Link:   http://www.youtube.com/watch?v=-fpxTA6iyH4

About:
My favourite song from the EP.
After a few months and no tabs appearing online, I finally
decided to produce my own from the few recording on YT.

----------------------------------------------------------------
| h = hammer-on                                                |
| p = pull-off                                                 |
|                                                              |
| The hammer-on and pull-off's are merely a guide, do whatever |
| sounds right to you!                                         |
----------------------------------------------------------------




Intro:
e-|----0--0--------0--0--------0--0--------0--------x-----|
B-|----0--0--------0--0--------0--0--------0--------x-----|
G-|----0--0--------0--0--------0--0--------0--------x-----|
D-|----0-h2--------2-p0--------0-h2--------0--------x-----|
A-|----2--2--------3--3--------2--2--------0--------x-----|
E-|----0--0--------3--3--------0--0--------2--------x-----|     x 4


Chorus:
e-|----0-----------0-----------0--0--------0--------x-----|
B-|----0-----------1-----------1--1--------0--------x-----|
G-|----0-----------0-----------0--0--------0--------x-----|
D-|----0-----------2-----------2-p0--------0--------x-----|
A-|----2-----------0-----------3--3--------0--------x-----|
E-|----0-----------0-----------0--0--------2--------x-----|     x 2


Verse 1 (same as intro):
e-|----0--0--------0--0--------0--0--------0--------x-----|
B-|----0--0--------0--0--------0--0--------0--------x-----|
G-|----0--0--------0--0--------0--0--------0--------x-----|
D-|----0-h2--------2-p0--------0-h2--------0--------x-----|
A-|----2--2--------3--3--------2--2--------0--------x-----|
E-|----0--0--------3--3--------0--0--------2--------x-----|     x 2


Chorus:
e-|----0-----------0-----------0--0--------0--------x-----|
B-|----0-----------1-----------1--1--------0--------x-----|
G-|----0-----------0-----------0--0--------0--------x-----|
D-|----0-----------2-----------2-p0--------0--------x-----|
A-|----2-----------0-----------3--3--------0--------x-----|
E-|----0-----------0-----------0--0--------2--------x-----|     x 2


Verse 2:
e-|-------------------------------------------------------|
B-|----0----------0------------0-----------0--------------|
G-|----0----------0------------0-----------0--------------|
D-|----2----------4------------2-----------4--------------|
A-|----3----------5------------3-----------5--------------|
E-|-------------------------------------------------------|

e-|----------------------------x--------------------------|
B-|----3-p0-------5-p0---------x--------------------------|
G-|----0--0-------0--0---------x--------------------------|
D-|----2--2-------4--4---------x--------------------------|
A-|----3--3-------5--5---------x--------------------------|
E-|----------------------------x--------------------------|     x 1


Chorus:
e-|----0--0--------0--0--------0--0--------0--------0~----|
B-|----0--0--------0--0--------0--0--------0--------0~----|
G-|----0--0--------0--0--------0--0--------0--------0~----|
D-|----0-h2--------2-p0--------0-h2--------0--------2~----|
A-|----2--2--------3--3--------2--2--------0--------2~----|
E-|----0--0--------3--3--------0--0--------2--------0~----|     x 2
Tap to rate this tab
# A B C D E F G H I J K L M N O P Q R S T U V W X Y Z