Song name
# A B C D E F G H I J K L M N O P Q R S T U V W X Y Z

Benjamin Francis Leftwich - Atlas Hands tab

Capo on 4th!

verse/intro
    Bm              D             G           G
e--------------------------2-2---2--------5-5---5-------5-5---5---|
B--------3-3---3-----------3---3-3--------3---3-3-------3---3-3---|
G--------4---4-4---------2-3-----2------0-0-----0-----0-0-----0---|
D------4-4-----4------0----0-----0--------0-----0-------0-----0---|
A----2---2-----2--------------------------2-----2-------2-----0---|
E-------------------------------------3---3-----3---3---3-----3---|

   Bm              D             G           G
e--------------------------0-0---0--------5-5---5-------5-5---5---|
B--------3-3---3-----------3---3-3--------3---3-3-------3---3-3---|
G--------4---4-4---------2-3-----2------0-0-----0-----0-0-----0---|
D------4-4-----4------0----0-----0--------0-----0-------0-----0---|
A----2---2-----2--------------------------2-----2-------2-----0---|
E-------------------------------------3---3-----3---3---3-----3---|

Take me to the docks, there's a ship without a name there
And it is sailing to the middle of the sea
The water there is deeper than anything you've ever seen
Jump right in and swim until you're free


chorus 

     Em               G               D            A 

e--------0------0-------------------------2-2---2-----------------|
B--------0-0----0---------3-3---3---------3---3-3-------2-2---2---|
G--------0----0-0---------0---0-0-------2-2-----2-------2---2-2---|
D------2-2------2-------0-0-----0-----0---0-----0-----2-2-----2---|
A-------------------------2-----2-------------------0---0-----0---|
E----0----------------3-------------------------------------------|

I will remember your face
'Cause I am still in love with that place
When the stars are the only things we share
Will you be there?

post chorus

(chorus chords in background)

   Bm                D              G               G
e----2------------------------2-----5-----------5-------------------|
B-------3------------------3-----------3-----------3----------------|
G----------4------------2-----------------0----------0--------------|
D-----------------------0-------------------------------------------|
A----2--------------------------------------------------------------|
E-----------------------------------3-----------3-------------------|

second verse
Money came like rain to your hands while you were waiting
For that cold long promise to appear
People in the churches started singing above their hands
They say, "My God is a good God and He cares"

second chorus

e--------0------0-------------------------2-2---2-----------------|
B--------0-0----0---------3-3---3---------3---3-3-------0h2---0-0-|
G--------0----0-0---------0---0-0-------2-2-----2-------2---2-2-0-|
D------2-2------2-------0-0-----0-----0---0-----0-----2-2-----2-2-|
A-------------------------2-----2-------------------0---0-----0-0-|
E----0----------------3-------------------------------------------|

break (chorus chords)

I've got a plan, I've got an atlas in my hands
I'm gonna turn when I listen to the lessons I've learned
I've got a plan, I've got an atlas in my hands
I'm gonna turn when I listen to the lessons I've learned
Tap to rate this tab
# A B C D E F G H I J K L M N O P Q R S T U V W X Y Z